Oops, an error
Loading. Please wait.
We have Chord Pro version of Pain.
It's the closest thing you can get to the original song and it has interactive parts. Check out the tab »
×
18,897 views 3 this week
6 commentsread comments
1 2 3 4 5
x 17
add to favorites
launch autoscroll
font size
0
reset
how to read this tab
guitar tuner
backing track
0:00
0:00
Autoscroll
slow
fast
+/-
esc
set tempo
stop
Difficulty
Tuning
novice
D A D G B E
Artist - Three Days Grace
Song - Pain
Album - One-X
Tuning - Drop D
Tabbed By - Bill Durant

This is my first tab...sounds right to me, but if there is any errors or anything
or any compliments/criticism my e-mail is stonesour189@hotmail.com.

Intro  (X1)
E - |------0-------0------0--------0-|
B - |--------0--------------0--------|
G - |---12------12-----12-------12---|
D - |-14------13-----12-------11-----|
A - |--------------------------------|
D - |--------------------------------|

E - |------0-------0--------0--------0--------------0-|
B - |--------0-------0--------0--------0-------0------|
G - |---12-------12------12-------12--------12---12---|
D - |-14-------13------12-------11-------10-----------|
A - |-------------------------------------------------|
D - |-------------------------------------------------|

Chorus  (X1)
E - |---------------------------------------------|
B - |---------------------------------------------|
G - |---------------------------------------------|
D - |-2-2---4-5-4-0---5-0---2-2---4-5-4-0---2-0---|
A - |-2-2---2-3-2-0---5-0---2-2---2-3-2-0---2-0---|
D - |-2-2-------------5-0---2-2---------------0---|

E - |----------------------------------------------------|
B - |----------------------------------------------------|
G - |-------------------------------------------11-12-11-|
D - |-2-2---4-5-4-0---5-0---12-12-12-12---0-0---11-12-11-|
A - |-2-2---2-3-2-0---5-0---10-10-10-10---0-0----9-10--9-|
D - |-2-2-------------5-0---10-10-10-10---0-0------------|

Bridge  (X4)
E - |-------------------------------------------------|
B - |-------------------------------------------------|
G - |11-12-11-12-11-12-11-12-11---5-5-5-5---7-7-7-7---|
D - |-9--9--9--9--9--9--9--9--9---5-5-5-5---7-7-7-7---|
A - |-----------------------------3-3-3-3---5-5-5-5---|
D - |-------------------------------------------------|

Outro (X1)
E - |------------------------|
B - |------------------------|
G - |11-12-11-12-11-12-11-12-|
D - |-9--9--9--9--9--9--9--9-|
A - |------------------------|
D - |------------------------|
Suggest correction
comments
print report bad tab
6 comments total. Showing first comments.
+2 reply
m.o.d.--- 70 Mar 08, 2007 06:06 PM

nice

-1 reply
wasco100 10 Dec 21, 2007 05:31 PM

gay tab

+2 reply
michaelrocks 31 Jun 22, 2008 12:22 PM

totally nice should be 5 stars

guest
You may want to rate the tab now too:
select rating
Wanna post a correction for this tab? Suggest correction