Oops, an error
Loading. Please wait.

Pain Bass Tab

version 3
36,066 views 75 this week
14 commentsread comments
1 2 3 4 5
excellent!
x 22
add to favorites
launch autoscroll
font size
0
reset
guitar tuner
Tab Pro tools
  • play this tab
  • loop segment
  • change instrument
  • show fretboard
  • metronome
Autoscroll
slow
fast
+/-
esc
set tempo
stop
Contributor
Tuning
D A D G B E
Intro: (0:15)
G|---------------------------------------------------------------|
D|---------------------------------------------------------------|
A|-------2h3p2-0-------------2h3p2-0-------------2h3p2-0---------|
D|---2-2---------5---0---2-2---------7---0---2-2---------5---0---|

G|---------------------------------|      
D|---------------------------------|  (this part's kinda cool because
A|---3-3-3-3-5-5-5-5---------------|   it leads right into the verse)
D|---------------------------------|

Verse (x4): (0:27)                     (after 4th time)
G|-------------------------------------|---------------|
D|-------------------------------------|---------------|
A|---7-7-7-7-6-6-6-6-5-5-5-5-4-4-4-4---|---3~----------|
D|-------------------------------------|---------------|

Chorus (x2): (0:54)
G|---------------------------------------------------------------|
D|---------------------------------------------------------------|
A|-------2h3p2-0-------------2h3p2-0-------------2h3p2-0---------|
D|---2-2---------5---0---2-2---------7---0---2-2---------5---0---|

G|---------------------------------|
D|---------------------------------|
A|---3-3-3-3-5-5-5-5---------------|
D|---------------------------------|

Verse (x3): (1:18)

(after 3rd time)
G|---------------|
D|---------------|
A|---3~----------|
D|---------------|

Chorus (x2): (1:40)

Chorus cont.
G|---------------------------------|
D|---------------------------------|
A|---3-3-3-3-5-5-5-5---------------|
D|---------------------------------|

Bridge part 1 (x2): (2:10)
G|---------------------------------|
D|---------------------------------|
A|---3-3-3-3-5-5-5-5---------------|
D|---------------------------------|

Bridge part 2 (x2): (2:19)
G|-------------------------|---------------------------------|
D|-------------------------|---------------------------------|
A|---910-910-910-910-9-2---|---3-3-3-3-5-5-5-5---------------|
D|-------------------------|---------------------------------|

Chorus (x2): (2:47)

Chorus cont. (x2)
G|---------------------------------|
D|---------------------------------|
A|---3-3-3-3-5-5-5-5---------------|
D|---------------------------------|

End: (3:16)
G|---------------------|
D|---------------------|
A|---910-910-910-910---|
D|---------------------|


comments
print report bad tab
14 comments total. Showing first comments.
0 reply
trev32 wrote on February 17 2007, 04:10 pm

Great song, great tab. i dont see any problems with it.

0 reply
__Ronnie__ wrote on March 18 2007, 11:35 am

Its perfect

0 reply
STeven on bass! wrote on March 20 2007, 03:43 am

I have to agree with the other 2 you have done a good job

I want to post or [tab]
guest
You may want to rate the tab now too:
select rating
Please do not post tabs as comments. Select "correction" instead!