Oops, an error
Loading. Please wait.

Pain Tab

version 3
15,358 views 1 this week
4 commentsread comments
1 2 3 4 5
accurate
x 10
add to favorites
launch autoscroll
font size
0
reset
how to read this tab
guitar tuner
Tab Pro tools
  • play this tab
  • loop segment
  • change instrument
  • show fretboard
  • metronome
×
Best way to learn
"Pain"
Autoscroll
slow
fast
+/-
esc
set tempo
stop
Contributor
Difficulty
intermediate
Artist: Three Days Grace
Title: Pain
Tuning: Db Ab Db Gb Bb Eb

Hey this is my first tab so let off on the critisism

()= mute
*= harmonic
h= hammer on
fb= full bend
hb= half bend
\= slide up neck

   Intro and Verse(PreChorus)
Eb|-------0-------0-----0------0-----0----------0---------0-------------0-|
Bb|--------0-------------0------------12---------12--------12-------12*---|
Gb|----12*-----12*---12*-----12*---12*--12*--12*---12*--12*--12*--12*-12*-|
Db|-14-------13----12------11----14--------13---------12--------11--------|
Ab|-----------------------------------------------------------------------|
Db|-----------------------------------------------------------------------|

   Chorus
Eb|--------------------------------------------------------|
Bb|--------------------------------------------------------|
Gb|------4---5---4-(0)-2--------------4---5---4-(0)--2-----|
Db|-2-2-(3)-(4)-(3)(0)-2--5--0---2-2-(3)-(4)-(3)(0)--2---0-|
Ab|-2-2--2---3---2-(0)-0--5--0---2-2--2---3---2-(0)--0---0-|
Db|-2-2-------------------5--0---2-2---------------------0-|

Eb|----------------------------------------------------------------------|
Bb|----------------------------------------------------------------------|
Gb|------4---5---4-(0)-2----------------------------------11--12--11--/--|
Db|-2-2-(3)-(4)-(3)(0)-2--5--0---12-12-12-12-12-12--0--0-(10)(11)(10)/---|
Ab|-2-2--2---3---2-(0)-0--5--0---10-10-10-10-10-10--0--0---9--10---9/----|
Db|-2-2-------------------5--0---10-10-10-10-10-10--0--0-----------------|

   PreChorus Background (Optional for 2 guitars)
Eb|--------12*--------7*--------12*-| X2
Bb|-------------12*-------12*-------|
Gb|--------------------------12*----|
Db|---------------------------------|
Ab|---------------------------------|
Db|---------------------------------|

   Breakdown/Bridge
Eb|----------------------------------------------------|
Bb|----------------------------------------------------|
Gb|-11-12-11-12-11-12-11-12-11--5-5-5-5-5---7-7-7-7-7--|
Db|--9--9--9--9--9--9--9--9--9--5-5-5-5-5---7-7-7-7-7--|
Ab|-----------------------------3-3-3-3-3---5-5-5-5-5--|
Db|----------------------------------------------------|

  Outro                   _let ring..
Eb|-------------------------------|
Bb|-------------------------------|
Gb|-11-12-11-12-11-12-11--12---\--|
Db|--9--9--9--9--9--9--9---9---\--|
Ab|-------------------------------|
Db|-------------------------------|

Thats It!
comments
print report bad tab
4 comments total. Showing first comments.
0 reply
WTF_do_you_care wrote on May 3 2007, 08:55 pm

WTF beginning isnt right, but the rest is pretty good. keep it up

+1 reply
griffin737 wrote on May 30 2007, 08:27 pm

your tab should be for regular drop D (D A D G B E)
not (Db Ab Db Gb Bb Eb)
other than that, it's good

0 reply
Colton165 wrote on December 26 2008, 10:15 pm

im pretty sure i had the intro right, the *'s are natural harmonics.

I want to post or [tab]
guest
You may want to rate the tab now too:
select rating
Please do not post tabs as comments. Select "correction" instead!