Oops, an error
Loading. Please wait.

Pain Bass Tab

version 4
version 4

Whole song

4,047 views 3 this week
2 commentsread comments
1 2 3 4 5
x 7
add to favorites
launch autoscroll
font size
0
reset
guitar tuner
×
Best way to learn
"Pain"
Autoscroll
slow
fast
+/-
esc
set tempo
stop
Difficulty
novice
TITLE: PAIN
ARTIST: THREE DAYS GRACE
ALBUM: ONE-X	
TABBER: STEPH (CYBERBASSIST@HOTMAIL.COM)

   E     G  D    E      A D     E    G D   C       D  
G|----------------------------------------------------------|
D|----------------------------------------------------------|
A|-----------------------------------------3-3-3-3-5-5-5-5--|
E|-0-0---3-------0--0---5-------0-0--3----------------------|
B|----------3-------------3------------3--------------------|


    E       Eb      D       Db     4x  C
G|-----------------------------------|---|
D|-----------------------------------|---|
A|*-7-7-7-7-6-6-6-6-5-5-5-5-4-4-4-4-*|-3~|
E|*---------------------------------*|---|
B|-----------------------------------|---|


                                                          2X
G|-----------------------------------------------------------|
D|-----------------------------------------------------------|
A|*-----------------------------------------3-3-3-3-5-5-5-5-*|
E|*-0-0---3-------0--0---5-------0-0--3---------------------*|
B|----------3-------------3------------3---------------------|

                                   3x
G|-----------------------------------|---|
D|-----------------------------------|---|
A|*-7-7-7-7-6-6-6-6-5-5-5-5-4-4-4-4-*|-3~|
E|*---------------------------------*|---|
B|-----------------------------------|---|



                                                                   X2
G|---------------------------------------------------------------------|
D|---------------------------------------------------------------------|
A|*-------2320-------------232-------------2320-------3-3-3-3-5-5-5-5-*|
E|*-0-0--------3-------0-0-----5-------0-0------3---------------------*|
B|---------------3---------------3-----------------3-------------------|


G|-------------------|
D|-------------------|
A|--3-3-3-3-5-5-5-5--|
E|-------------------|
B|-------------------|

BRIDGE
G|-R---|------------------|------|------------------|
D|-E---|------------------|------|------------------|
A|-S---|-3-3-3-3-5-5-5-5--|------|-3-3-3-3-5-5-5-5--|
E|-T---|------------------|--15/-|------------------|
B|-----|------------------|------|------------------|

    F# G                                   X2
G|-------------------------|-----------------|---R--|
D|-------------------------|-----------------|---E--|
A|*-9-10-9-10-9-10-9-10-9-2|3-3-3-3-5-5-5-5-*|---S--|
E|*------------------------|----------------*|---T--|
B|-------------------------|-----------------|------|
                                                                  X2
G|---------------------------------------------------------------------|
D|---------------------------------------------------------------------|
A|*-------2320-------------232-------------2320-------3-3-3-3-5-5-5-5-*|
E|*-0-0--------3-------0-0-----5-------0-0------3---------------------*|
B|---------------3---------------3-----------------3-------------------|

                      X2
G|---------------------|
D|---------------------|
A|*--3-3-3-3-5-5-5-5--*|
E|*-------------------*|
B|---------------------|

outro
G|------------------------||
D|------------------------||
A|-9-10-9-10-9-10-9-10~---||
E|------------------------||
B|------------------------||
Suggest correction
comments
print report bad tab
2 comments total.
0 reply
LeTaco 30 Jan 03, 2009 02:23 AM

Great tab if you got a 5 string like me :) So I'm using this one. Just can't figure out why you tabbed the intro as you did? Ain't it just the same as chorus ? :)

0 reply
petey1993 52 Jul 13, 2010 05:02 PM

no its not, ti doesn't have the 232 on it like the chorus does. listen to the song it makes it quite obvious lol

guest
You may want to rate the tab now too:
select rating
Wanna post a correction for this tab? Suggest correction