Oops, an error
Loading. Please wait.

Pain Bass Tab

version 5
version 5

Whole song

2,128 views 3 this week
1 commentread comment
1 2 3 4 5
please rate
add to favorites
launch autoscroll
font size
0
reset
guitar tuner
Autoscroll
slow
fast
+/-
esc
set tempo
stop
Help us to improve Ultimate-Guitar.com Take our survey!
×
Author
Difficulty
novice
Tuning:Drop D


Intro
G|---------------------------------------------------------------------|
D|---------------------------------------------------------------------|
A|-------2-3-2-0-----------------2-3-2-0-----------------2-3-2-0-------|
D|-2--2-----------5--0-----2--2-----------7--0-----2--2-----------5--0-|

G|---------------------------------------------------------------------|
D|---------------------------------------------------------------------|
A|---------------------------------------------------------------------|
D|-10-10-10-10-10-12-12-12-12-12---------------------------------------|

Verse (4x)
G|---------------------------------------------------------------------|
D|---------------------------------------------------------------------|
A|---------------------------4-4-4-4-----------------------------------|
D|-2-2-2-2--1-1-1-1--0-0-0-0-------------------------------------------|

Chorus (2x)
G|---------------------------------------------------------------------|
D|---------------------------------------------------------------------|
A|-------2-3-2-0-----------------2-3-2-0-----------------2-3-2-0-------|
D|-2--2-----------5--0-----2--2-----------7--0-----2--2-----------5--0-|

G|---------------------------------------------------------------------|
D|---------------------------------------------------------------------|
A|---------------------------------------------------------------------|
D|-10-10-10-10-10-12-12-12-12-12---------------------------------------|

Verse 2 (3x)
G|---------------------------------------------------------------------|
D|---------------------------------------------------------------------|
A|---------------------------4-4-4-4-----------------------------------|
D|-2-2-2-2--1-1-1-1--0-0-0-0-------------------------------------------|

Chorus (2x)
G|---------------------------------------------------------------------|
D|---------------------------------------------------------------------|
A|-------2-3-2-0-----------------2-3-2-0-----------------2-3-2-0-------|
D|-2--2-----------5--0-----2--2-----------7--0-----2--2-----------5--0-|

      (3x) then...
G|----------------------------------------------------------------------|
D|----------------------------------------------------------------------|
A|----------------------------------------------------------------------|
D|-10-10-10-10-10-12-12-12-12-12----------------------------------------|

G|---------------------------------------------------------------------|
D|---------------------------------------------------------------------|
A|---------------------------------------------------------------------|
D|-15\--10-10-10-10-10-12-12-12-12-12----------------------------------|




(2x)
G|---------------------------------------------------------------------|
D|---------------------------------------------------------------------|
A|---------------------------------------------------------------------|
D|-10-10-10-10-10-12-12-12-12-12---------------------------------------|

Outro
G|---------------------------------------------------------------------|
D|---------------------------------------------------------------------|
A|-------2-3-2-0-----------------2-3-2-0-----------------2-3-2-0-------|
D|-2--2-----------5--0-----2--2-----------7--0-----2--2-----------5--0-|

G|---------------------------------------------------------------------|
D|---------------------------------------------------------------------|
A|---------------------------------------------------------------------|
D|-10-10-10-10-10-12-12-12-12-12---------------------------------------|

(2x)
G|---------------------------------------------------------------------|
D|---------------------------------------------------------------------|
A|-------2-3-2-0-----------------2-3-2-0-----------------2-3-2-0-------|
D|-2--2-----------5--0-----2--2-----------7--0-----2--2-----------5--0-|

G|---------------------------------------------------------------------|
D|---------------------------------------------------------------------|
A|---------------------------------------------------------------------|
D|-10-10-10-10-10-12-12-12-12-12---------------------------------------|
Suggest correction
Give kudos to tab author, rate the tab!
1 2 3 4 5
comments
print report bad tab
1 comment total.
0 reply
happygoth 10 wrote on August 8 2012, 03:45 pm

I'm sorry your verse is wrong.
It should be like this


Verse x4
G|------------------------------------|
D|------------------------------------|
A|-7-7-7-7-6-6-6-6-5-5-5-5-4-4-4-4---|
D|------------------------------------|


Until you get to the the end of the verse right before the chorus where you play a 3 on the A string once and let it hold. Then you go into the chorus.

guest
You may want to rate the tab now too:
select rating
Please do not post tabs as comments. Select "correction" instead!