Oops, an error
Loading. Please wait.

Riot Bass Tab

version 1
version 1

Whole song

36,718 views 15 this week
20 commentsread comments
1 2 3 4 5
x 17
add to favorites
launch autoscroll
font size
0
reset
guitar tuner
Autoscroll
slow
fast
+/-
esc
set tempo
stop
Help us to improve Ultimate-Guitar.com Take our survey!
×
Author
Tuning
D A D G B E
Tabbed for 5-string
                              x4
G| |-------------------------| |---------------------------------------|
D|o|-------------------------|o|---------------------------------------|
A| |-------------------------| |---------------------------------------|
E|o|-------------4~~~--4~-3~-|o|-------------4~~~--------------4-3---3-|
B| |-1~~~--4~~~--------------| |-1~~~--4~~~--------4-3-4-6-4-3-----6---|

|------------------------|---------------------------|
|------------------------|---------------------------|
|------------------------|---------------------------|
|--------4-3--------4-3--|--------4-3---------6--6h8-|
|-1--4-1------1-4-1------|-1--4-1------6-6--6--------|

|------------------------|--------------------------------|
|------------------------|--------------------------------|
|------------------------|------------------------------3-|
|--------4-3--------4-3--|--------4-3---------4-3---4-3---|
|-1--4-1------1-4-1------|-1--4-1------6-6--6-----6-------|
                             x4
| |-------------------------| |---------------------------------------|
|o|-------------------------|o|---------------------------------------|
| |-------------------------| |---------------------------------------|
|o|-------------4~~~--4~-3~-|o|-------------4~~~--------------4-3---3-|
| |-1~~~--4~~~--------------| |-1~~~--4~~~--------4-3-4-6-4-3-----6---|

|------------------------|---------------------------|
|------------------------|---------------------------|
|------------------------|---------------------------|
|--------4-3--------4-3--|--------4-3---------6--6h8-|
|-1--4-1------1-4-1------|-1--4-1------6-6--6--------|

|------------------------|---------------------------|-------|
|------------------------|---------------------------|-------|
|------------------------|---------------------------|-------|
|--------4-3--------4-3--|--------4-3---------6--6h8-|-------|
|-1--4-1------1-4-1------|-1--4-1------6-6--6--------|1~~~~~~|

Short pause (let the guitar play through below sequesnce once)
                                 x3
| |-----------------------------| ||--------------------------|
|o|-----------------------------|o||--------------------------|
| |---------------11-----10---8-| ||---------------11-10-8-10-|
|o|-8-8-8-11-10-9----8-8----8---|o||-8-8-8-11-10-9------------|
| |-----------------------------| ||--------------------------|

                                 x3
| |-----------------------------| ||--------------------------|
|o|---------------11-----10---8-|o||---------------11-10-8-10-|
| |-8-8-8-11-10-9----8-8----8---| ||-8-8-8-11-10-9------------|
|o|-----------------------------|o||--------------------------|
| |-----------------------------| ||--------------------------|

|-------------------------|-------------------------------------------|
|-------------------------|-------------------------------------------|
|-------------------------|-------------------------------------------|
|-------------4~~~--4~-3~-|-------------444-444-444-444-444-444-444-4-|
|-1~~~--4~~~--------------|-1~~~--4~~~--------------------------------|

Short Pause

|------------------------|---------------------------|
|------------------------|---------------------------|
|------------------------|---------------------------|
|--------4-3--------4-3--|--------4-3---------6--6h8-|
|-1--4-1------1-4-1------|-1--4-1------6-6--6--------|

|------------------------|---------------------------|
|------------------------|---------------------------|
|------------------------|---------------------------|
|--------4-3--------4-3--|--------4-3---------6--6h8-|
|-1--4-1------1-4-1------|-1--4-1------6-6--6--------|

|------------------------|---------------------------|
|------------------------|---------------------------|
|------------------------|---------------------------|
|--------4-3--------4-3--|--------4-3---------6--6h8-|
|-1--4-1------1-4-1------|-1--4-1------6-6--6--------|

|------------------------|--------------------------------|-----------|
|------------------------|--------------------------------|-----------|
|------------------------|------------------------------3-|-----------|
|--------4-3--------4-3--|--------4-3---------4-3---4-3---|-----------|
|-1--4-1------1-4-1------|-1--4-1------6-6--6-----6-------|-1~~~~~~~~~|


Its got a few of the left out riffs from the drop D one, and trust me, they wern't 
all to easy to figure out.
Suggest correction
comments
print report bad tab
20 comments total. Showing first comments.
0 reply
theevildarklord 10 Aug 17, 2006 11:49 PM

Hey this is a pretty good tab, the only thing is that the key is in drop C just like the rest of the CD...the tabs you have now are fine, just go into drop C instead of D. Congrats.

0 reply
test dummy 10 Aug 28, 2006 11:04 PM

yeah, i agree its in C, and the last note of the song is a ringing C, just to let you know, good job though, its a great song!

0 reply
cldntthnkofasn 72 Sep 02, 2006 09:40 PM

Thanks and yea i noticed the c note after i posted the tab lol but oh well.

guest
You may want to rate the tab now too:
select rating
Wanna post a correction for this tab? Suggest correction