Oops, an error
Loading. Please wait.

Riot Tab

version 1
version 1

Solo

Whole song

9,998 views 6 this week
no commentswrite comment
1 2 3 4 5
please rate
add to favorites
launch autoscroll
font size
0
reset
how to read this tab
guitar tuner
Autoscroll
slow
fast
+/-
esc
set tempo
stop
Help us to improve Ultimate-Guitar.com Take our survey!
×
Difficulty
Tuning
intermediate
D A D G B E
Song is tuned in D#.
D# A# D# G# B# E#

Solo i believe is in the key of D# i think.
Tone: all you need is a heavy tone with some reverb, a bit(hardly any) delay, and a
This solo comes in at about 2:15-2:16 on the song.The original song has no solo. when i
this solo i was pretty much just made it at the spot. so it was improv so yea. my first 
so take it easy on me :D Please listen to the song and while learning it, it would help to
listening to the song...like i said, its my first attempt at a tab so dont be too harsh, 
know i proably did a horrible job but i tried.

Go to http://www.youtube.com/watch?v=1bCLCR7HTQU to listen to the solo, it starts at
2:14-2:15 on the video
*note, that on the solo video...then end is weird. yes its weird but its not played like
anymore...which is the reason why i added the bends at the end of this tab. i will try
make a how-to video on playing this solo. THANKS! hope this helps ya peeps learn the 
:D

2:15 to about 2:25

  |-------------| |----------------| |First-little-run----------------------

D#--------------------------------------------------------------------------|
A#--------------------------------------------------------------------------|
D#--------------------------------------------------------------------------|
G#--------------------10B---------------10-11-13----------13----------------|
B#---12B(full)--------10B-----------------------10h13p(10)--10-11-13--------|
E#---10---------------------------------------------------------------------|

    --continued little run-----------------------------------------------|

D#--------------------------------------------------------------------------|
A#--------------------------------------------------------------------------|
D#-------------------------------------------------------12--12-10v--12v----|
G#------------------------12--12-10-12b-12b--12b---12bp10--10---------------|
B#------------13----13-10---10---------13--13-------------------------------|
E#--10h13p(10)---10---------------------------------------------------------|


  From about 2:25 to 2:30
  |Final run-----------------------------------------------------------------|
D#---------------------------------------------------------------------------|
A#---------------------------------------------------------------------------|
D#---10h11h13----------13----------------------------------------------------|
G#-----------10h13p(10)---10-12-13--------13---------------------------------|
B#--------------------------------10h13p10--10-13--------13--13p10h13p10-----|
E#-----------------------------------------------10h13p10--10----------------|

 ----continued run-----------------------------------------------------------|
D#---------------------------------------------------------------------------|
A#---------------------------------------------------------------------------|
D#---------------------------------------------------------------------------|
G#--12--12-10h12p10-12b--12b(let it ring)------------------------------------|
B#----10---------------13----------------------------------------------------|
E#---------------------------------------------------------------------------|

  this part is before the singing starts again...at about 2:30 to 2:38
  |--------------------------------------------------------------------------|
D#---------------------------------------------------------------------------|
A#---------------------------------------------------------------------------|
D#---------------------------------------------------------------------------|
G#---------------------------------------------------------------------------|
B#----13b--------------15b----------------19b-19b-19b-19b19b19b--19----------|bv(hold)
E#----10---------------12-----------------16--16--16--16-16-16---16----------|


bp= Bend then pull off
p=pull off
h=hammer on
b=bend
v=vibrato
bv=bend and vibrato
Suggest correction
Give kudos to tab author, rate the tab!
1 2 3 4 5
comments
print report bad tab
guest
You may want to rate the tab now too:
select rating
Wanna post a correction for this tab? Suggest correction