Oops, an error
Loading. Please wait.

Riot Tab

version 1
version 1

Whole song

556,159 views 504 this week
53 commentsread comments
1 2 3 4 5
excellent!
x 134
add to favorites
launch autoscroll
font size
0
reset
how to read this tab
guitar tuner
Autoscroll
slow
fast
+/-
esc
set tempo
stop
Help us to improve Ultimate-Guitar.com Take our survey!
×
Contributor
Tuning
jaames 1,152
C G C F A D
Artist : Three Days Grace
Album  : One-X
Song   : Riot
Tuning : Drop C  


[Intro]

  Rock Swing Q=131(8=s8)
  N.C.
 4/4
  Gtr I
  PM----------------------------------------------|
|-------------------------|-------------------------|
|-------------------------|-------------------------|
|-------------------------|-------------------------|
|-------------8-7-5-7-5---|---------5-7-8-7-5---5-7-|
|-5-5-5-8-7-5-----------8-|-5-5-5-8-----------8-----|
|-------------------------|-------------------------|


  PM------------------------------|
|-------------------------|----------------------||
|-------------------------|----------------------||
|-------------------------|----------------------||
|-------------8-7-5-7-5---|---------5-7-8-7-5-7--||
|-5-5-5-8-7-5-----------8-|-5-5-5-8--------------||
|-------------------------|----------------------||


[ Pre-Verse]

  $
  D5                        F5
  PM----------------------------------------------|
|-------------------------|-------------------------|
|-------------------------|-------------------------|
|-------------------------|-------------------------|
|-------------8-7-5-7-5---|---------5-7-8-7-5---5-7-|
|-5-5-5-8-7-5-----------8-|-5-5-5-8-----------8-----|
|-------------------------|-------------------------|
|
| Gtr II
|-------------------------|-------------------------|
|-------------------------|-------------------------|
|-------------------------|-------------------------|
|-0-----------------------|-3-----------------------|
|-0-----------------------|-3-----------------------|
|-0-----------------------|-3-----------------------|


                                         To Coda
  Bb5                                   A5
  PM------------------------------|
|-------------------------|----------------------||
|-------------------------|----------------------||
|-------------------------|----------------------||
|-------------8-7-5-7-5---|---------5-7-8-7-5-7--||
|-5-5-5-8-7-5-----------8-|-5-5-5-8--------------||
|-------------------------|----------------------||
|
|-------------------------|----------------------||
|-------------------------|----------------------||
|-------------------------|----------------------||
|-8-----------------------|-8-----------7--------||
|-8-----------------------|-8-----------7--------||
|-8-----------------------|-8-----------7--------||


   [Verse]

    D5                        F5
    PM----------------------------------------------|
||--------------------------|-------------------------|
||o-------------------------|-------------------------|
||--------------------------|-------------------------|
||--------------8-7-5-7-5---|---------5-7-8-7-5---5-7-|
||o-5-5-5-8-7-5-----------8-|-5-5-5-8-----------8-----|
||--------------------------|-------------------------|
|
||--------------------------|-------------------------|
||o-------------------------|-------------------------|
||--------------------------|-------------------------|
||--0-----------------------|-3-----------------------|
||o-0-----------------------|-3-----------------------|
||--0-----------------------|-3-----------------------|


  Bb5                                   A5
  PM------------------------------|
                                                  4x
|-------------------------|-----------------------||
|-------------------------|----------------------o||
|-------------------------|-----------------------||
|-------------8-7-5-7-5---|---------5-7-8-7-5-7---||
|-5-5-5-8-7-5-----------8-|-5-5-5-8--------------o||
|-------------------------|-----------------------||
|
|                                                 4x
|-------------------------|-----------------------||
|-------------------------|----------------------o||
|-------------------------|-----------------------||
|-8-----------------------|-8-----------7---------||
|-8-----------------------|-8-----------7--------o||
|-8-----------------------|-8-----------7---------||


 [Chorus]

  D5 F5D5Bb5A5    D5F5D5Bb5A5   D5 F5D5Bb5A5    G5    C5   D5
  Gtrs I, II
|--------------|--------------|--------------|---------------|
|--------------|--------------|--------------|---------------|
|--------------|--------------|--------------|--------5--5-7-|
|-0--3-0-8--7--|--0-3-0-8--7--|-0--3-0-8--7--|--5-5-5-5--5-7-|
|-0--3-0-8--7--|--0-3-0-8--7--|-0--3-0-8--7--|--5-5-5-3--3-5-|
|-0--3-0-8--7--|--0-3-0-8--7--|-0--3-0-8--7--|--5-5-5--------|


                                                      D.S. al Coda
  D5 F5D5Bb5A5    D5F5D5Bb5A5   D5 F5D5Bb5A5    G5    N.C.
  Gtr I
                                                      PM--------|
|--------------|--------------|--------------|----------------------||
|--------------|--------------|--------------|----------------------||
|--------------|--------------|--------------|----------------------||
|-0--3-0-8--7--|--0-3-0-8--7--|-0--3-0-8--7--|--5-5-5-8-7-5-7-5-----||
|-0--3-0-8--7--|--0-3-0-8--7--|-0--3-0-8--7--|--5-5-5-----------8---||
|-0--3-0-8--7--|--0-3-0-8--7--|-0--3-0-8--7--|--5-5-5---------------||
|
| Gtr II
|--------------|--------------|--------------|----------------------||
|--------------|--------------|--------------|----------------------||
|--------------|--------------|--------------|----------------------||
|-0--3-0-8--7--|--0-3-0-8--7--|-0--3-0-8--7--|--5-5-5---------------||
|-0--3-0-8--7--|--0-3-0-8--7--|-0--3-0-8--7--|--5-5-5---------------||
|-0--3-0-8--7--|--0-3-0-8--7--|-0--3-0-8--7--|--5-5-5---------------||


   [Verse II]

    &
    D5                        F5
    PM----------------------------------------------|
||--------------------------|-------------------------|
||o-------------------------|-------------------------|
||--------------------------|-------------------------|
||--------------8-7-5-7-5---|---------5-7-8-7-5---5-7-|
||o-5-5-5-8-7-5-----------8-|-5-5-5-8-----------8-----|
||--------------------------|-------------------------|
|
||--------------------------|-------------------------|
||o-------------------------|-------------------------|
||--------------------------|-------------------------|
||--0-----------------------|-3-----------------------|
||o-0-----------------------|-3-----------------------|
||--0-----------------------|-3-----------------------|


  1.,2.,3.
  Bb5                                   A5
  PM------------------------------|
                                                  4x
|-------------------------|-----------------------||
|-------------------------|----------------------o||
|-------------------------|-----------------------||
|-------------8-7-5-7-5---|---------5-7-8-7-5-7---||
|-5-5-5-8-7-5-----------8-|-5-5-5-8--------------o||
|-------------------------|-----------------------||
|
|                                                 4x
|-------------------------|-----------------------||
|-------------------------|----------------------o||
|-------------------------|-----------------------||
|-8-----------------------|-8-----------7---------||
|-8-----------------------|-8-----------7--------o||
|-8-----------------------|-8-----------7---------||


  4.
  Bb5                                       A5
  PM--------------------------------|
|-------------------------|----------------------------||
|-------------------------|----------------------------||
|-------------------------|----------------------------||
|-------------8-7-5-7-5---|-----------5---7-8-7---5-7--||
|-5-5-5-8-7-5-----------8-|-5-5---5-8------------------||
|-------------------------|----------------------------||
|
|-------------------------|----------------------------||
|-------------------------|----------------------------||
|-------------------------|----------------------------||
|-8-----------------------|-8---8---8---8---7---7---7--||
|-8-----------------------|-8---8---8---8---7---7---7--||
|-8-----------------------|-8---8---8---8---7---7---7--||


[ Chorus II]

  D5 F5D5Bb5A5    D5F5D5Bb5A5   D5 F5D5Bb5A5    G5    C5   D5
  Gtrs I, II
|--------------|--------------|--------------|---------------|
|--------------|--------------|--------------|---------------|
|--------------|--------------|--------------|--------5--5-7-|
|-0--3-0-8--7--|--0-3-0-8--7--|-0--3-0-8--7--|--5-5-5-5--5-7-|
|-0--3-0-8--7--|--0-3-0-8--7--|-0--3-0-8--7--|--5-5-5-3--3-5-|
|-0--3-0-8--7--|--0-3-0-8--7--|-0--3-0-8--7--|--5-5-5--------|


  D5 F5D5Bb5A5    D5F5D5Bb5A5   D5 F5D5Bb5A5    G5    C5    D5
|--------------|--------------|--------------|----------------||
|--------------|--------------|--------------|----------------||
|--------------|--------------|--------------|--------5-5-5-7-||
|-0--3-0-8--7--|--0-3-0-8--7--|-0--3-0-8--7--|--5-5-5-5-5-5-7-||
|-0--3-0-8--7--|--0-3-0-8--7--|-0--3-0-8--7--|--5-5-5-3-3-3-5-||
|-0--3-0-8--7--|--0-3-0-8--7--|-0--3-0-8--7--|--5-5-5---------||


 [Breakdown]

  D5
|----------|--------|
|----------|--------|
|----------|--------|
|-0--------|-(0)----|
|-0--------|-(0)----|
|-0--------|-(0)----|


  N.C.
  Gtr I
  PM--------|   PM|   PM    PM--------|   PM|   PM
|-------------------------|-------------------------|
|-------------------------|-------------------------|
|-------------------------|-------------------------|
|-------------------------|-------------------------|
|-------------6-----5---3-|-------------6-----5---3-|
|-5-5-5-8-7-5---5-5---5---|-5-5-5-8-7-5---5-5---5---|


  PM--------|   PM|   PM    PM--------|
|-------------------------|----------------------|
|-------------------------|----------------------|
|-------------------------|----------------------|
|-------------------------|----------------------|
|-------------6-----5---3-|-------------6-5-3-5--|
|-5-5-5-8-7-5---5-5---5---|-5-5-5-8-7-5----------|


  (Dm)
  Gtr I
  PM--------|   PM|   PM     PM---------|   PM|   PM
|-------------------------|---------------------------|
|-------------------------|---------------------------|
|-------------------------|---------------------------|
|-------------8-----7---5-|---------------8-----7---5-|
|-5-5-5-8-7-5---5-5---5---|--5--5-5-8-7-5---5-5---5---|
|-------------------------|---------------------------|
|
| Gtr II
|-------------------------|---------------------------|
|-6-----------------------|-(6)-----------------------|
|-7-----------------------|-(7)-----------------------|
|-------------------------|---------------------------|
|-------------------------|---------------------------|
|-------------------------|---------------------------|


  PM--------|   PM|   PM     PM---------|
|-------------------------|------------------------|
|-------------------------|------------------------|
|-------------------------|------------------------|
|-------------8-----7---5-|---------------8-7-5-7--|
|-5-5-5-8-7-5---5-5---5---|--5--5-5-8-7-5----------|
|-------------------------|------------------------|
|
|-------------------------|------------------------|
|-6-----------------------|-(6)--------------------|
|-7-----------------------|-(7)--------------------|
|-------------------------|------------------------|
|-------------------------|------------------------|
|-------------------------|------------------------|


  (Gm)
   PM------------|      PM|      PM      PM-------------|      PM|      PM
|-------------------------------------|--------------------------------------|
|-------------------------------------|--------------------------------------|
|-------------------------------------|--------------------------------------|
|-------------------13-------12----10-|--------------------13-------12----10-|
|-10-10-10-13-12-10----10-10----10----|-10--10-10-13-12-10----10-10----10----|
|-------------------------------------|--------------------------------------|
|
|--6----------------------------------|-(6)----------------------------------|
|--8----------------------------------|-(8)----------------------------------|
|-------------------------------------|--------------------------------------|
|-------------------------------------|--------------------------------------|
|-------------------------------------|--------------------------------------|
|-------------------------------------|--------------------------------------|


   PM------------|      PM|      PM      PM-------------|
|-------------------------------------|---------------------------------||
|-------------------------------------|---------------------------------||
|-------------------------------------|---------------------------------||
|-------------------13-------12----10-|--------------------13-12-10-12--||
|-10-10-10-13-12-10----10-10----10----|-10--10-10-13-12-10--------------||
|-------------------------------------|---------------------------------||
|
|--6----------------------------------|-(6)-----------------------------||
|--8----------------------------------|-(8)-----------------------------||
|-------------------------------------|---------------------------------||
|-------------------------------------|---------------------------------||
|-------------------------------------|---------------------------------||
|-------------------------------------|---------------------------------||


 [Interlude]

  D5          F5         Bb5                       A5
                                                      ~~~
|-10--------|-5--------|-5b6=====(5)--(5)r5-|--------------|
|-----------|----------|--------------------|-6------------|
|-----------|----------|--------------------|------7-------|
|-----------|----------|--------------------|--------------|
|-----------|----------|--------------------|--------------|
|-----------|----------|--------------------|--------[3]---|
|
|-----------|----------|--------------------|--------------|
|-----------|----------|--------------------|--------------|
|-----------|----------|--------------------|--------------|
|--0--------|-3--------|-8------------------|-8----7-------|
|--0--------|-3--------|-8------------------|-8----7-------|
|--0--------|-3--------|-8------------------|-8----7-------|


  D5          F5         Bb5
                                              >
|-10--------|-5--------|-5b6=====(5)--(5)--|-(5)-------(5)r-||
|-----------|----------|-------------------|----------------||
|-----------|----------|-------------------|----------------||
|-----------|----------|-------------------|----------------||
|-----------|----------|-------------------|----------------||
|-----------|----------|-------------------|----------------||
|
|-----------|----------|-------------------|----------------||
|-----------|----------|-------------------|----------------||
|-----------|----------|-------------------|----------------||
|--0--------|-3--------|-8-----------------|-(8)------------||
|--0--------|-3--------|-8-----------------|-(8)------------||
|--0--------|-3--------|-8-----------------|-(8)------------||


 [Guitar Break]

  N.C.
  Gtr III
  ~~~~~~~~~~~~~~~~~~~~~~~~~~~~~~~~~~~~~~~~~~
|--------------|--------------|--------------|-----||
|--------------|--------------|--------------|-----||
|--------------|--------------|--------------|-----||
|-0--3-0-8--7--|--0-3-0-8--7--|-0--3-0-8--7--|-----||
|--------------|--------------|--------------|-----||
|--------------|--------------|--------------|-----||


  [ Out-Chorus]

    D5 F5D5Bb5A5    D5F5D5Bb5A5   D5 F5D5Bb5A5    G5    C5   D5
    Gtrs I, II
                                                                 3x
||---------------|--------------|--------------|-----------------||
||o--------------|--------------|--------------|----------------o||
||---------------|--------------|--------------|--------5--5-7---||
||--0--3-0-8--7--|--0-3-0-8--7--|-0--3-0-8--7--|--5-5-5-5--5-7---||
||o-0--3-0-8--7--|--0-3-0-8--7--|-0--3-0-8--7--|--5-5-5-3--3-5--o||
||--0--3-0-8--7--|--0-3-0-8--7--|-0--3-0-8--7--|--5-5-5----------||


  D5  F5D5Bb5A5     D5F5D5Bb5A5   D5    F5D5Bb5  A5        G5    C5   D5
  Gtr I
|---------------|---------------|----------------------|----------------|
|---------------|---------------|----------------------|----------------|
|---------------|---------------|----------------------|---------5--5-7-|
|--0--3-0-8--7--|---0-3-0-8--7--|-0-----3-0--8----7----|---5-5-5-5--5-7-|
|--0--3-0-8--7--|---0-3-0-8--7--|-0-----3-0--8----7----|---5-5-5-3--3-5-|
|--0--3-0-8--7--|---0-3-0-8--7--|-0-----3-0--8----7----|---5-5-5--------|
|
| Gtr II
|-10------------|-5-------------|-5b6=======(5)--(5)r5-|----------------|
|---------------|---------------|----------------------|-6--------------|
|---------------|---------------|----------------------|---------7------|
|---------------|---------------|----------------------|----------------|
|---------------|---------------|----------------------|----------------|
|---------------|---------------|----------------------|----------------|


  D5
  Gtrs I, II
|----------|------------|------------|--------*|
|----------|------------|------------|--------*|
|----------|------------|------------|--------*|
|-0--------|-(0)--------|-(0)--------|-(0)----*|
|-0--------|-(0)--------|-(0)--------|-(0)----*|
|-0--------|-(0)--------|-(0)--------|-(0)----*|


Tablature Legend

************************************

| x    Dead note
| (n)  Ghost note
| b    Bend

************************************
comments
print report bad tab
53 comments total. Showing first comments.
+3 reply
hearn_dude 23 wrote on June 14 2006, 05:21 pm

awesome tab keep it up dude. this is 100%

+8 reply
jaames 1,152 wrote on June 17 2006, 05:51 pm

The Intro/verse can also be played like this
D|-------------------------------------------------|
A|-------------------------------------------------|
F|-------------3-2-0-2-0-----------0-2-3-2-0---0-2-|
C|-0-0-0-3-2-0-----------3-0-0-0-3-----------3-----|
G|-------------------------------------------------|
C|-------------------------------------------------|

D|---------------------------------------------|
A|---------------------------------------------|
F|-------------3-2-0-2-0-----------0-2-3-2-0-2-|
C|-0-0-0-3-2-0-----------3-0-0-0-3-------------|
G|---------------------------------------------|
C|---------------------------------------------|

0 reply
gigson111 436 wrote on July 5 2006, 05:50 pm

awesome tab..how long did it take u to figure this out??....*****

I want to post or [tab]
guest
You may want to rate the tab now too:
select rating
Please do not post tabs as comments. Select "correction" instead!