Oops, an error
Loading. Please wait.

Riot Bass Tab

version 2
version 2

Whole song

12,255 views 33 this week
no commentswrite comment
1 2 3 4 5
excellent!
x 5
add to favorites
launch autoscroll
font size
0
reset
guitar tuner
Autoscroll
slow
fast
+/-
esc
set tempo
stop
Help us to improve Ultimate-Guitar.com Take our survey!
×
Difficulty
Tuning
novice
B F# B E G# C#
Riot
Three Days Grace
Tuning B E A D

 Verse                  x5
D|-------------------------|
A|-------------------------|
E|--------------3~~~---3-2-|
B|-0~~~--3~~~--------------|

 Chorus
D|------------------------|-------------------------|
A|------------------------|-------------------------|
E|--------3-2--------3-2--|--------3-2---------3-3--|
B|-0--3-0-----0-3-0-------|-0--3-0------0--5-5------|

D|------------------------|------------------------|
A|------------------------|------------------------|
E|--------3-2--------3-2--|--------3-2-------------|
B|-0--3-0------0-3-0------|-0--3-0------0--5-5-----|

 Verse x4

 Chorus

 Breakdown
D|-------------|
A|-------------|
E|-------------|
B|-0~~~~~~~~~--|

 Pause

 Bridge (Same as Verse) x4

 Pause (Wah Wah Section)

 Chorus x4

 Outro
D|------------|
A|------------|
E|------------|
B|-0~~~~~~~~--|
comments
print report bad tab
I want to post or [tab]
guest
You may want to rate the tab now too:
select rating
Please do not post tabs as comments. Select "correction" instead!