Oops, an error
Loading. Please wait.

Running Away Bass Tab

version 1
version 1

Whole song

Interactive

  • I think this is much better than the other version on UG.
1,198 views 1 this week
no commentswrite comment
1 2 3 4 5
please rate
add to favorites
launch autoscroll
font size
0
reset
guitar tuner
Autoscroll
slow
fast
+/-
esc
set tempo
stop
Help us to improve Ultimate-Guitar.com Take our survey!
×
Well, this is my first tab, so be nice plox..!

Verse (Repeat as much as needed..)
G|-----------------------------------|------------------|
D|-----------------------------------|------------------|
A|-----------------------------------|------------------|Come in with drums.
D|-2----------2----------0---------0-|------------------|

Pre-chorus
G|--------------------------------|
D|--------------------------------|
A|------------------3---3---3---3-|
D|-3---3---3---3------------------|

Chorus (x1)
E|------------------------------------|
B|------------------------------------|
G|------------------------------------|
D|------------------------------------|
A|------------------------------------|
D|-x-x--5--0--3--10--x-x--0--8--3--10-|

Bridge (x3)

G|-----------------------------------------------------------|
D|-----------------------------------------------------------|
A|--------------------------------------4--------4--------4--|
D|-4-4-4--2--0--4-4-4--2--0--4-4--2--0------0-0------0-0-----|


Outro 

G|---------------------------------|<------Play each note 8 times
D|---------------------------------|
A|---------------------------------|
D|-5---0---3---10---0---8---3---10-|

Suggest correction
Give kudos to tab author, rate the tab!
1 2 3 4 5
comments
print report bad tab
guest
You may want to rate the tab now too:
select rating
Wanna post a correction for this tab? Suggest correction