Oops, an error
Loading. Please wait.

Scared Bass Tab

version 1
version 1

Whole song

Interactive

3,837 views 15 this week
2 commentsread comments
1 2 3 4 5
excellent!
x 4
add to favorites
launch autoscroll
font size
0
reset
guitar tuner
Tab Pro tools
  • play this tab
  • loop segment
  • change instrument
  • show fretboard
  • metronome
Autoscroll
slow
fast
+/-
esc
set tempo
stop
Contributor
-------------------------------------------------------------------------------
			     Three Days Grace - Scared
-------------------------------------------------------------------------------

Tabbed By : MiltownBass

Great Three Days Grace song, easy and fun to play.
Please Rate!

Tuning: Drop-D

Intro
  (0:04)
G|----------------------|
D|----------------------|
A|---------------(4x)---|
D|-5-5-5-5-5-0----------|

Verse 
  (0:12)
G|----------------------|
D|----------------------|
A|---------------(8x)---|
D|-5-5-5-5-5-0----------|

Pre-Chorus
  (0:28)
G|-------------------------------------------------------------------|
D|-------------------------------------------------------------------|
A|-------------------------------------------------------------------|
D|-1-1-1-1-8-8-8-8---5-5-5-5-5-0---5-5-5-5-5-0---1-1-1-1-8-8-8-7-----|

Chorus
  (0:40)
G|--------------------------------------------------------------------|
D|--------------------------------------------------------------------|
A|---------------------(3x)-----------------(play this the 4th time)--|
D|-5--0--1--10-10-3-4--------5--0--1----3-----------------------------|

Intro (0:57)
Verse (1:05)
Pre-Chorus (1:21)
Chorus (1:33)
Intro (1:49)

Bridge
  (1:58)
G|---------------------------------------------------------------------------|
D|---------------------------------------------------------------------------|
A|------------------(1x)---------(4x)-------------------(1x)---------(2x)----|
D|-1-1-1-1-8-8-8-3--------5---0--------1-1-1-1-8-8-8-8--------5---0----------|

G|---------------------------------------------------------------------------|
D|---------------------------------------------------------------------------|
A|------------------(1x)---------(2x)----------------------------------------|
D|-1-1-1-1-8-8-8-8--------5---0--------1-1-1-1-1-1-1-1-8-8-8-8-8-------------|

Chorus 2x (2:30)
Intro (3:03)

===============================================================================
comments
print report bad tab
2 comments total.
0 reply
AsteriX018 wrote on September 2 2006, 10:59 am

Good stuff! Well written out

0 reply
hozarth wrote on July 31 2009, 07:14 pm

E/--5-5-5-5-5-5-5-3-------5-5-5-5-5-5-7-3

I want to post or [tab]
guest
You may want to rate the tab now too:
select rating
Please do not post tabs as comments. Select "correction" instead!