Oops, an error
Loading. Please wait.

Scared Bass Tab

version 2
version 2

Whole song

Interactive

966 views 1 this week
no commentswrite comment
1 2 3 4 5
2 more votes to show rating
add to favorites
launch autoscroll
font size
0
reset
guitar tuner
Autoscroll
slow
fast
+/-
esc
set tempo
stop
Help us to improve Ultimate-Guitar.com Take our survey!
×
Author
Difficulty
intermediate
Three Days Grace - Scared

bass tab

by : doky 2007
taquilleros_de_sudamerica_maroyu_el_grupo_tropical_del_momento@hotmail.com

5-stringed bass
G D A E B

   INTRO/VERSO/BREAK 1 
G-|------------|-------------|
D-|------------|-------------|
A-|------------|-------------|
E-|-33-33-33---|-33-33-3h6---|
B-|----------3-|-----------3-|
                                                                              

   BREAK 2
G-|---------------|
D-|---------------|
A-|---------------|
E-|--------666666-|
B-|-444444--------|
                                                                              

   CORO
G-|---------------------|
D-|---------------------|
A-|---------------------|
E-|-3-----------888-----|
B-|-----3---4-------666-|
                                                                              

   MIDDLE
G-|----------|---------------|
D-|----------|---------------|
A-|----------|---------------|
E-|-3--------|--------666666-|
B-|------333-|-444444--------|
                                                                              
Les mando saludos bien estes para mis cuaetes de mi curso que formamos una banda
que nunca logramos tocar nada:
Arturo: Bajo
Onty: guitarra
Micky: vocal
yo iba a tocar la bateria pero nunca hicimos nada, tampoco tenia nombre ese proyecto,
eso fue el 2004.

doky2007
Suggest correction
Give kudos to tab author, rate the tab!
1 2 3 4 5
comments
print report bad tab
guest
You may want to rate the tab now too:
select rating
Wanna post a correction for this tab? Suggest correction