Oops, an error
Loading. Please wait.

Someone Who Cares Bass Tab

version 1
version 1

Whole song

Interactive

3,584 views 1 this week
no commentswrite comment
1 2 3 4 5
excellent!
x 3
add to favorites
launch autoscroll
font size
0
reset
guitar tuner
Autoscroll
slow
fast
+/-
esc
set tempo
stop
Help us to improve Ultimate-Guitar.com Take our survey!
×
Author
Tuning
C G C F A D
-------------------------------------------------------------------------------
			     SOMEONE WHO CARES - Three Days Grace
-------------------------------------------------------------------------------

Tabbed By : mariewong

Tuning: Drop C



Intro:

F|---------------|        |----------|
C|---55----------|        |---55-----|
G|-------88---6--|  [x2]  |-------6--|
C|-35--35--355---|        |-35---3---|



Verse:
Every street in this city
Is the same to me
Everyone's got a place to be
But there's no room for me

F|-----------------|
C|-----------------|
G|-----------------|
C|-5~-0~-8~-7~-0~--|


Am I to blame
When the guilt and the shame hang over me
Like a dark cloud
That chases you down in the pouring rain

F|------------------------------------------------------------------------|
C|------------------------------------------------------------------------|
G|----------------------------------------------------------------3(x16)--|
C|-55-5--5-5-5-55-5-7-8-00-0--0-0-0-00-0000-3333-0000-8(x8)-7(x8)---------|



Chorus:
It's so hard to find someone who cares about you
But it's easy enough to find someone who looks down on you

F|----------------------------------------|
C|----------------------------------------|
G|-------3(x8)-5(x16)-------3(x8)-5(x13)--|
C|-2(x8)--------------2(x8)---------------|


Why is it so hard to find someone who cares about you
When it's easy enough to find someone who looks down on you

F|---------------------------------------------|
C|---------------------------------------------|
G|-------3(x8)-5(x12)---32-------3(x8)-5(x16)--|
C|-2(x8)--------------54---2(x8)---------------|



Verse:
It's not what it seems
When you're not on the scene
There's a chill in the air
But there's people like me
That nobody sees, so nobody cares

F|-----------------------------------------------------------------------|
C|-----------------------------------------------------------------------|
G|----------------------------------------------------------------3(x8)--|
C|-55-5--5-5-5-55-5-7-8-00-0--0-0-0-00-0000-3333-0000-8(x8)-7(x8)--------|



Chorus:
Why is it so hard to find someone who cares about you
When it's easy enough to find someone who looks down on you
Why is it so hard to find someone who can keep it together
When you've come undone
Why is it so hard to find someone who cares about you

F|--------------------------------------------------|
C|--------------------------------------------------|
G|-------3(x8)-5(x12)---32-------3(x8)-5(x12)---32--|
C|-2(x8)--------------54---2(x8)--------------54----|

F|-------------------------------------------------------|
C|-------------------------------------------------------|
G|-------3(x8)-5(x12)---32-------3(x8)-5(x12)---32-------|
C|-2(x8)--------------54---2(x8)--------------54----5\2--|



Bridge:

F|-------------------------------------------------------------------|
C|-------------------------------------------------------------------|
G|-------------------------------------------------------------------|
C|-02022-02022022--02022-02022022--02020-02020-020--02020-02020-020--|

F|---------------------------------------------------------------------|
C|---------------------------------------------------------------------|
G|-----3-----3---3-------5-----5---5-----------------------------------|
C|-0202--0202--02----0202--0202--02----02022-0202202~--02022-0202202~--|


I swear this time it won't turn out
The same cause now I've got myself to blame
And you'll know where we'll end up
On the streets 
That is easy enough
To find someone who looks down on you

F|-------------------------------------------------------------------|
C|-------------------------------------------------------------------|
G|-------------------------------------------------------------------|
C|-02022-02022022--02022-02022022--02020-02020-020--02020-02020-020--|

F|---------------------------------------------|
C|---------------------------------------------|
G|-----3-----3---3-------5-----5---5---0(x13)--|
C|-0202--0202--02----0202--0202--02------------|



Chorus:
Why is it so hard to find someone who cares about you
When it's easy enough to find someone who looks down on you
Why is it so hard to find someone who can keep it together
When you've come undone
Why is it so hard to find someone who cares about you

F|----------------------------------------------------|
C|----------------------------------------------------|
G|-------6(x8)-8(x12)---65---------6(x8)-8(x12)---65--|
C|-5(x8)--------------87-----5(x8)--------------87----|


F|----------------------------------------------|
C|----------------------------------------------|
G|-------6(x8)-8(x12)---65---------6(x8)-8(x9)--|
C|-5(x8)--------------87-----5(x8)--------------|



Outro:

F|-------------------------|
C|---55-------------55-----|
G|-------88---6---------6--|
C|-35--35--355----35---3---|





| /  slide up
| \  slide down
| h  hammer-on
| p  pull-off
| ~  vibrato
| +  harmonic
| x  Mute note
===============================================================================
Suggest correction
Give kudos to tab author, rate the tab!
1 2 3 4 5
comments
print report bad tab
guest
You may want to rate the tab now too:
select rating
Please do not post tabs as comments. Select "correction" instead!