Oops, an error
Loading. Please wait.

Take Me Under Tab

version 3
version 3

Whole song

Interactive

2,203 views 1 this week
2 commentsread comments
1 2 3 4 5
x 5
add to favorites
launch autoscroll
font size
0
reset
how to read this tab
guitar tuner
Autoscroll
slow
fast
+/-
esc
set tempo
stop
Author
Difficulty
Tuning
intermediate
D A D F# A D
Three Days Grace - Take Me Under
TUNING: Drop C   C G C F G C   *****NOTE THE ODD TUNING********

Guitar 1 - Barry Stock
Guitar 2 - Adam Gontier

INTRO - VERY Slight Distortion    4X
Guitar 1
|--------------------------------------------7---------7-----------|
|----------------------------------------------8---------8-------8-|
|------------------------------------------------------------------|
|----0-----0-----0------0-------0----------------------------------|
|---------------------------------------6-6-------6-6--------6-6---|
|--5---5-7---7-8---8-10---10s12---12s15----------------------------|

PRE-CHORUS - Let ring out.
Guitar 1 - VERY slight distortion
|---------------------------------------------------------|
|---------------------------------------------------------|
|--------3--2--------2--0---------0--2--------0---0-2-3---|
|------3-----------1------------3-----------1-------------|
|----3-----------1------------3-----------1---------------|
|--3-----------1------------3-----------1-----------------|

VERSE   4X
Guitar 1 - Dist.
|------------------------------------------------------------|
|---------------------------------------------0---------0----|
|------------------------------------------------------------|
|----0-----0-----0------0-------0----------------3---------3-|
|------------------------------------------1----------1------|
|--5---5-7---7-8---8-10---10s12---12s15--1----------1--------|

PRE-CHORUS
Guitar 1 - Dist. and Slight Chorus
|--------------------------------------------------------|
|-----------0---------0--------------0-------------------|
|--------3--------------0---------0-----------0---0-2-3--|
|------3-----------1------------3-----------1------------|
|----3-----------1------------3-----------1--------------|
|--3-----------1------------3-----------1----------------|

CHORUS   2X
Part 1
Guitars 1 and 2 - Distortion
|------------------------------------------------|
|------------------------------------------------|
|----------8---7-------------------8---7---------|
|--5---0---8---7---0-------5---0---8---7---0-----|  1X
|--5---0---6---5---0-------5---0---6---5---0-----|
|--5---0-----------0-------5---0-----------0-----|

CHORUS
Part 2
Guitar 1 - Dist.
|------------------------------------------------|
|---------------------------(8)-(8)--------------|
|--10--10--10--10--10--------8---8---8---8--8----|
|--10--10--10--10--10--------8---8---8---8--8----|
|--8---8---8---8---8---------6---6---6---6--6----|
|------------------------------------------------|

Guitar 2 - Dist.
|------------------------------------------------|
|------------------------------------------------|
|--5---5---5---5---5---------3---3---------------|
|--3---3---3---3---3---------1---1---1---1---1---|
|--3---3---3---3---3---------1---1---1---1---1---|
|--3---3---3---3---3---------1---1---1---1---1---|

VERSE   3X
PRE-CHORUS
CHORUS - Part 1 and 2 - 2X

BRIDGE - Part 1   3X
Both Guitars - Distortion
|------------------------------------------------|
|------------------------------------------------|
|------------------------------------------------|
|------------------------------------------------|
|------------------------------------------------|
|--5-5-5-7-7-7-8-8-8-10-10-10-12-12-15-15--------|

|------------------------------------------------|
|------------------------------------------------|
|--14-14--14-14---14-14-14-14----14-14-14<-------|
|--15-15--15-15---15-15-15-15----15-15-15<-------|
|--13-13--13-13---13-13-13-13----13-13-13<-------|
|--13-13--13-13---13-13-13-13----13-13-13<-------|

BRIDGE - Part 2
Both Guitars - Distortion
|------------------------------------------------|
|------------------------------------------------|
|------------------------------------------------|
|------------------------------------------------|
|------------------------------------------------|
|--5-5-5-7-7-7-8-8-8-10-10-10-12-12-15-15--------|

|------------------------------------------------|
|------------------------------------------------|
|--14-14-14-14---14-14-14-14----14<--------------|
|--15-15-15-15---15-15-15-15----15<--------------| steady slide down
|--13-13-13-13---13-13-13-13----13<--------------|
|--13-13-13-13---13-13-13-13----13<--------------|

INTERLUDE
Both Guitars - Dist. - Let ring
|------------------------------------------------|
|-----------0---------0--------------0-----------|
|--------3--------------0---------0--------------|
|------3-----------1------------3----------------|
|----3-----------1------------3------------------|
|--3-----------1------------3--------------------|

Both Guitars - Dist. - Slight Palm Mute
|------------------------------------------------|
|------------------------------------------------|
|------------------------------------------------|
|------------------------------------------------|
|------------------------------------------------|
|--13-13-13-12-12-12-10-10-10-8-8-8-7----(7)-----|
                                    ^-- 1/2 bend
CHORUS  2X
Part 1
Guitars 1 and 2 - Distortion
|----------------------------------------------------|
|----------------------------------------------------|
|----------8---7---------------------8---7-----------|
|--5---0---8---7-------------5---0---8---7-----------|  1X
|--5---0---6---5---5-5-5-5---5---0---6---5---5-5-5---|
|--5---0-----------0-0-0-0---5---0-----------0-0-0---|
                                           pm.....
CHORUS
Part 2
Guitar 1 - Dist.
|------------------------------------------------|
|---------------------------(8)-(8)--------------|
|--10--10--10--10--10--------8---8---8---8--8----|
|--10--10--10--10--10--------8---8---8---8--8----|
|--8---8---8---8---8---------6---6---6---6--6----|
|------------------------------------------------|

Guitar 2 - Dist.
|------------------------------------------------|
|------------------------------------------------|
|--5---5---5---5---5---------3---3---------------|
|--3---3---3---3---3---------1---1---1---1---1---|
|--3---3---3---3---3---------1---1---1---1---1---|
|--3---3---3---3---3---------1---1---1---1---1---|

BRIDGE - Play entire BRIDGE again

OUTRO   1X
Guitar 1 - VERY slight distortion - Let ring
|---------------------------------------------------------|
|---------------------------------------------------------|
|--------3--2--------2--0--------0--2---------0---0-2-3---|
|------3-----------1------------3-----------1-------------|
|----3-----------1------------3-----------1---------------|
|--3-----------1------------3-----------1-----------------|
Suggest correction
comments
print report bad tab
2 comments total.
0 reply
cam507 61 Jul 04, 2007 06:11 PM

Guitar 1
|---------------------------------------|
|---------------------------------------|
|---------------------------------------|
|----0-----0-----0------0-----0---------|
|--------------------3----3s5---s8------|
|--5---5-7---7-8---8--------------------|


would be easier to play as:


Guitar 1
|---------------------------------------|
|---------------------------------------|
|---------------------------------------|
|----0-----0-----0------0-------0-------|
|---------------------------------------|
|--5---5-7---7-8---8-10---10s12----s15--|

same notes just more practical than going from the 8th fret on the top string to the 3rd fret on the 5th string. good tab.

0 reply
Shwax 256 Oct 19, 2009 10:04 PM

this is pretty awful.

guest
You may want to rate the tab now too:
select rating
Wanna post a correction for this tab? Suggest correction