Oops, an error
Loading. Please wait.

The Chain Bass Tab

version 1
version 1

Whole song

Interactive

3,165 views 1 this week
1 commentread comment
1 2 3 4 5
x 3
add to favorites
launch autoscroll
font size
0
reset
guitar tuner
Autoscroll
slow
fast
+/-
esc
set tempo
stop
Help us to improve Ultimate-Guitar.com Take our survey!
×
Author
Difficulty
Tuning
novice
D A D G B E
-------------------------------------------------------------------------------
			     The Chain - Three Days Grace
-------------------------------------------------------------------------------

Tabbed By : HiddenWalrus
e-mail: maxbasin@hotmail.com

Tuning: Drop D

Verse 1:

G|---------------------------------------------------------------------------|
D|---------------------------------------------------------------------------| 
A|--------------------------------3-3-3-3-1-1-1-0----------------------------|
D|0-0-0-0-0-0-0-0-5-5-5-5-5-5-5-5----------------5-7-0-0-0-0-0-0-0-0--5-5-5-5|

G|---------------------------------------------------------------------------|
D|---------------------------------------------------------------------------| 
A|--------3-3-3-3-1-1-1-0----------------------------------------------------|
D|5-5-5-5----------------5-7-0-0-0-0-0---------------------------------------|

Chorus:

G|---------------------------------------------------------------------------|
D|-----------------------------3------------------------------------3--------|
A|-------------------------5-------3----------------------------5-------3----| 
D|5--5--5--5--5--5--5--5---------------5--5--5--5--5--5--5--5---------------0|

Verse 2:

G|---------------------------------------------------------------------------|
D|---------------------------------------------------------------------------| 
A|--------------------------------3-3-3-3-1-1-1-0----------------------------|
D|0-0-0-0-0-0-0-0-5-5-5-5-5-5-5-5---------------5-7-0-0-0-0-0-0-0-0--5-5-5-5-|

G|----------------------------------------------------------------------------|
D|----------------------------------------------------------------------------| 
A|--------3-3-3-3-1-1-1-0-----------------------------------3-3-3-3-1-1-1-0---|
D|5-5-5-5----------------5-7-0-0-0-0-0-0-0-0-5-5-5-5-5-5-5-5---------------5-7|

G|---------------------------------------------------------------------------|
D|---------------------------------------------------------------------------|
A|---------------------------------------------------------------------------|
D|0-0-0-0-0------------------------------------------------------------------|

Chorus 2:

G|---------------------------------------------------------------------------|
D|-----------------------------3------------------------------------3--------|
A|-------------------------5-------3----------------------------5-------3----| 
D|5--5--5--5--5--5--5--5---------------5--5--5--5--5--5--5--5---------------0|

Bass Only Part:
G|0----0-2-3-2-0---0-2------0----0-2-3-2-0---0-2------0----0-2-3-2-0---0-2---|
D|---------------3-----0-------------------3-----0--------------------3----0-|
A|---------------------------------------------------------------------------|
D|---------------------------------------------------------------------------|

 (Drums Kick In)                        (Guitar Kicks In)  
G|-----------0-0-0-0-0-0-0-2-3-2-0---0-2-------------------------------------|
D|0--0--0--0-----------------------3-----0-0-0-0-0-0-0-0---------------------|
A|---------------------------------------------------------------------------|
D|---------------------------------------------------------------------------|

With Drums And Guitars:
G|0--0--0--0--0--2-3-2-0---0-2-----------------------------------------------|
D|-----------------------3-----0--0--0--0--0--0--0--0------------------------|*Repeat 3 Times
A|---------------------------------------------------------------------------|
D|---------------------------------------------------------------------------|

G|0-0-0-0-0-2-3-2-0---0-2----------------------------------------------------|
D|------------------3-----0-0-0-0-0--0-0-0-0-0-------------------------------|
A|---------------------------------------------------------------------------|
D|---------------------------------------------------------------------------|

G|0--0--0--0--0--2-3-2-0---0-2-----------------------------------------------|
D|-----------------------3-----0--0--0--0--0--0--0--0------------------------|*Repeat 3 Times
A|---------------------------------------------------------------------------|
D|---------------------------------------------------------------------------|

G|0----0-2-3-2-0---0-2-------------------------------------------------------|
D|---------------3-----0-----------------------------------------------------|*Repeat 4 Times
A|---------------------------------------------------------------------------|
D|---------------------------------------------------------------------------|


| /  slide up
| \  slide down
| h  hammer-on
| p  pull-off
| ~  vibrato
| +  harmonic
| x  Mute note
===============================================================================
Suggest correction
Give kudos to tab author, rate the tab!
1 2 3 4 5
comments
print report bad tab
1 comment total.
0 reply
Hals Shinigami 113 Aug 27, 2012 01:39 PM

Great tab bro! It sounds awesome ^_^ 5 stars!

guest
You may want to rate the tab now too:
select rating
Wanna post a correction for this tab? Suggest correction