Oops, an error
Loading. Please wait.

The Chain tab

version 4
version 4

Whole song

Interactive

1,467 views 1 this week
4 commentsread comments
1 2 3 4 5
x 4
add to favorites
×
Save as Personal and add changes to this tab that will be seen only by you. Learn more ›
×
You can save this tab as Personal to edit and correct it or add notes. All changes will be seen only by you. Learn more »
launch autoscroll
font size
0
reset
how to read this tab
guitar tuner
edit
Autoscroll
slow
fast
+/-
esc
set tempo
stop
dannydfo
My first tab so lets see how this goes...
Three Days Grace - The Chain
* = palm mute
 Guitar 1 intro
[-------0----------------------------0--------------------]
[---------------------------------------------------------]
[--------------------7----------------------------7-------]
[----8------------8-------------8-8----------8-8----------]
[--0------------0-------------0------------0--------------]
[---------------------------------------------------------]
Verse
[---------------------------------------------------------------------------]
[---------------------------------------------------------------------------]
[---------------------------------------------------------------------------]
[-0--0--0--0--0--0--0--0--5--5--5--5--5--5--5--5--10--10--10--10--8--8--88--]
[-0--0--0--0--0--0--0--0--5--5--5--5--5--5--5--5--10--10--10--10--8--8--88--]
[-0--0--0--0--0--0--0--0--5--5--5--5--5--5--5--5--10--10--10--10--8--8--88--]
  *  *  *  *  *  *  *  *  *  *  *  *  *  *  *  *  *   *   *   *   *  *  **

[----------------------]
[----------------------]
[----------------------]
[-5--7--0--0--0--0--0--]
[-5--7--0--0--0--0--0--]
[-5--7--0--0--0--0--0--]
  *  *  *  *  *  *  *
Chorus

[------------------------------------------------------------------------]
[------------------------------------------------------------------------]
[------------------------------------------------------------------------]x2
[---5--5--5--5-3-5--5--5--5---0------0----8-----8---10----10--8-8--5-7-5-]
[---5--5--5--5-3-5--5--5--5---0------0----8-----8---10----10--8-8--5-7-5-]
[---5--5--5--5-3-5--5--5--5---0------0----8-----8---10----10--8-8--5-7-5-]
 
After the second time end on open D 

Verse x2
Chorus

Bridge/Outro
[---------------------------------------------------------------------------
[---------------------------------------------------------------------------
[---------------------------------------------------------------------------
[---------------------------------------------------------------------------
[---------------------------------------------------------------------------
[--5--5-7-8-7-5-3-5-7-0------5--5-7-8-7-5-3-5-7-0-----5--5-7-8-7-5-3-5-7-0-0

[------------------------------------------------------------------------]
[------------------------------------------------------------------------]
[------------------------------------------------------------------------]
[------------------------0-0-0-0-0-0-0-0--|5--5--5--5-7-8-7-5-3-5-7-0-0-0]
[------------------------0-0-0-0-0-0-0-0--|5--5--5--5-7-8-7-5-3-5-7-0-0-0]
[-0-5--5-7-8-7-5-3-5-7-0-0-0-0-0-0-0-0-0--|5--5--5--5-7-8-7-5-3-5-7-0-0-0]
                         * * * * * * * *   \
                                            \    do this part until the end    
                                             \
                                              \
This part is optional, near the end you can hear the 2nd guitar kick in..

[--10--10-12-13-12-10-8-10-12-----------]                        [-17----]
[-----------------------------8---------]                        [-------]
[---------------------------------------]                        [-------]
[---------------------------------------] x3 and the last note is[-------]
[---------------------------------------]                        [-------]
[---------------------------------------]                        [-------]

            
            
Suggest correction
Creating personal tab
Creating personal tab
You can edit any tab online and save it as your Personal.

You can edit, replace or remove any tab part or add personal notes – all changes will be seen only by you.

Personal tabs can be accessed anytime from any device, even offline.
Learn more »
comments
print report bad tab
4 comments total. Showing first comments.
0 reply
dannydfo 52 Oct 01, 2013 07:25 AM

I messed up sorry, instead of 8 in the intro, play 10

0 reply
sonofguido 195 Mar 11, 2014 11:12 PM, edited on March 12 2014, 03:14 am

Hey man. Overall, nice tab. There are some things I hear in the song not present in your tab. Below are my corrections, of what I hear. Take a listen, play them and if you think they are correct, feel free to use my modifications (marked by the ^ symbol). Thanks for getting the tab started. Keep it up! Guitar 1 intro[---------0-------------------------------0--------------------][--------------------------------------------------------------][------------------------7-------------------------------7-----] Volume Swell[----10-------------10---------------10-------------10---------][--0----0---------0----0---------0-0----0-------0-0----0-------][--------------------------------------------------------------] ^ ^ ^ ^ ^ ^Verse[-------------------------------------------------------------------------------][-------------------------------------------------------------------------------] [-------------------------------------------------------------------------------] |second time,[-0--0--0--0--0--0--0--0--5--5--5--5--5--5--5--5--10--10--10--10--8--8--87-5-7--] 2x |end verse by [-0--0--0--0--0--0--0--0--5--5--5--5--5--5--5--5--10--10--10--10--8--8--87-5-7--] |playing five open D[-0--0--0--0--0--0--0--0--5--5--5--5--5--5--5--5--10--10--10--10--8--8--87-5-7--] |down strokes * * * * * * * * * * * * * * * * * * * * * * ** * * ^ ^ ^Chorus[-------------------------------------------------------------------][-------------------------------------------------------------------] [-------------------------------------------------------------------] [---5--5--5---5-3-5--5--5--5-3--0---0-7-8---8---10---10r---8-7-5-7--] 2x [---5--5--5---5-3-5--5--5--5-3--0---0-7-8---8---10---10r---8-7-5-7--] [---5--5--5---5-3-5--5--5--5-3--0---0-7-8---8---10---10r---8-7-5-7--] ^ ^ ^ ^ ^ ^ After the second time, end on open D. Bridge/Outro[-----------------------------------------------------------------------------------][-----------------------------------------------------------------------------------][-----------------------------------------------------------------------------------][-----------------------------------------------------------------------------------][-----------------------------------------------------------------------------------][--5--5-7-8-7-5-3-5-7-0------5--5-7-8-7-5-3-5-7-0-----5--5-7-8-7-5-3-5-7-0-0--0-0-0-][------------------------------------------------------------------------------------------][------------------------------------------------------------------------------------------][------------------------------------------------------------------------------------------][-------------------------------0-0-0-0-0-0-0-0--|5--5--5--5-7-8-7-5-3-5-7-0-0-0-0-0-0-0-0-][-------------------------------0-0-0-0-0-0-0-0--|5--5--5--5-7-8-7-5-3-5-7-0-0-0-0-0-0-0-0-][-5-5-5-5-5-5-5-7-8-7-5-3-5-7-0-0-0-0-0-0-0-0-0--|5--5--5--5-7-8-7-5-3-5-7-0-0-0-0-0-0-0-0-] * * * * * * * * \ ^ ^ ^ ^ ^ ^ ^ ^ Gradually let off \ Do this part until the end. After the 4th time, Palm Mutes here. \ play five rapid open D strums using alternate with about 12 rapid \ strumming (down, up, down, up, down) a total of down strokes \ 4x when the snare drum is hit quickly. Lead Guitar near the end[--10--10-12-13-12-10-8-10-12-----------] [-10----][-----------------------------10--------] [-------][---------------------------------------] [-------][---------------------------------------] x3 and the last note is[-------][---------------------------------------] [-------][---------------------------------------] [-------] ^ ^Hopefully you like it. Take care.

0 reply
sonofguido 195 Mar 11, 2014 11:15 PM

Hey man. Overall, nice tab. There are some things I hear in the song not present in your tab. Below are my corrections, of what I hear. Take a listen, play them and if you think they are correct, feel free to use my modifications (marked by the ^ symbol). Thanks for getting the tab started. Keep it up!

Guitar 1 intro
[---------0-------------------------------0--------------------]
[--------------------------------------------------------------]
[------------------------7-------------------------------7-----] Volume Swell
[----10-------------10---------------10-------------10---------]
[--0----0---------0----0---------0-0----0-------0-0----0-------]
[--------------------------------------------------------------]
^ ^ ^ ^ ^ ^
Verse
[-------------------------------------------------------------------------------]
[-------------------------------------------------------------------------------]
[-------------------------------------------------------------------------------] |second time,
[-0--0--0--0--0--0--0--0--5--5--5--5--5--5--5--5--10--10--10--10--8--8--87-5-7--] 2x |end verse by
[-0--0--0--0--0--0--0--0--5--5--5--5--5--5--5--5--10--10--10--10--8--8--87-5-7--] |playing five open D
[-0--0--0--0--0--0--0--0--5--5--5--5--5--5--5--5--10--10--10--10--8--8--87-5-7--] |down strokes
* * * * * * * * * * * * * * * * * * * * * * ** * *
^ ^ ^
Chorus

[-------------------------------------------------------------------]
[-------------------------------------------------------------------]
[-------------------------------------------------------------------]
[---5--5--5---5-3-5--5--5--5-3--0---0-7-8---8---10---10r---8-7-5-7--] 2x
[---5--5--5---5-3-5--5--5--5-3--0---0-7-8---8---10---10r---8-7-5-7--]
[---5--5--5---5-3-5--5--5--5-3--0---0-7-8---8---10---10r---8-7-5-7--]
^ ^ ^ ^ ^ ^
After the second time, end on open D.

Bridge/Outro
[-----------------------------------------------------------------------------------]
[-----------------------------------------------------------------------------------]
[-----------------------------------------------------------------------------------]
[-----------------------------------------------------------------------------------]
[-----------------------------------------------------------------------------------]
[--5--5-7-8-7-5-3-5-7-0------5--5-7-8-7-5-3-5-7-0-----5--5-7-8-7-5-3-5-7-0-0--0-0-0-]

[------------------------------------------------------------------------------------------]
[------------------------------------------------------------------------------------------]
[------------------------------------------------------------------------------------------]
[-------------------------------0-0-0-0-0-0-0-0--|5--5--5--5-7-8-7-5-3-5-7-0-0-0-0-0-0-0-0-]
[-------------------------------0-0-0-0-0-0-0-0--|5--5--5--5-7-8-7-5-3-5-7-0-0-0-0-0-0-0-0-]
[-5-5-5-5-5-5-5-7-8-7-5-3-5-7-0-0-0-0-0-0-0-0-0--|5--5--5--5-7-8-7-5-3-5-7-0-0-0-0-0-0-0-0-]
* * * * * * * * \ ^ ^ ^ ^ ^ ^ ^ ^
Gradually let off \ Do this part until the end. After the 4th time,
Palm Mutes here. \ play five rapid open D strums using alternate
with about 12 rapid \ strumming (down, up, down, up, down) a total of
down strokes \ 4x when the snare drum is hit quickly.


Lead Guitar near the end

[--10--10-12-13-12-10-8-10-12-----------] [-10----]
[-----------------------------10--------] [-------]
[---------------------------------------] [-------]
[---------------------------------------] x3 and the last note is[-------]
[---------------------------------------] [-------]
[---------------------------------------] [-------]
^ ^

Hopefully you like it. Take care.

guest
You may want to rate the tab now too:
select rating
Wanna post a correction for this tab? Suggest correction