Oops, an error
Loading. Please wait.

The Good Life Bass Tab

version 1
version 1

Whole song

Interactive

15,018 views 3 this week
2 commentsread comments
1 2 3 4 5
excellent!
x 7
add to favorites
launch autoscroll
font size
0
reset
guitar tuner
Autoscroll
slow
fast
+/-
esc
set tempo
stop
Help us to improve Ultimate-Guitar.com Take our survey!
×
Author
Tuning
D A D G B E
-------------------------------------------------------------------------------
			     THE GOOD LIFE - Three Days Grace
-------------------------------------------------------------------------------

Tabbed By : mariewong

Tuning: Drop D


Intro:

G|--------------------------------------------------------------------|
D|--------------------------------------------------------------------|
A|--------------------------------------------------------------------|  [x2]
D|-0-0-78-0-67-0-1~-0-0-78-0-67-0-1~-0-0-78-0-67-0-1~-0-0-650-650-3~--|



Verse:
The good life is what I need
Too many people stepping over me
The only thing that's been on my mind
The one thing I need before I die

G|--------------------------------------------------------------------|
D|--------------------------------------------------------------------|
A|--------------------------------------------------------------------|
D|-0-0-78-0-67-0-1~-0-0-78-0-67-0-1~-0-0-78-0-67-0-1~-0-0-650-650-3~--|

G|-------------------------------------------|
D|-------------------------------------------|
A|-----------------------------------1111-0--|
D|-0-0-78-0-67-0-1~-0-0-78-0-67-0-1~---------|



Chorus:
All I want is a little of the good life
All I need is to have a good time
Oh, the good life
All I want is a little of the good life
All I need is to have a good time
Oh, the good life

G|-----------------------------------------------|
D|-----------------------------------------------|
A|-----------------------------------------------|
D|-000-330555888--777-330555101010--888-8857777--|

G|------------------------------------------|
D|------------------------------------------|
A|------------------------------------------|
D|-000-330555888--777-330555101010--8888-7--|

G|--------------------------------------------------------------------|
D|--------------------------------------------------------------------|
A|--------------------------------------------------------------------|
D|-0-0-78-0-67-0-1~-0-0-78-0-67-0-1~-0-0-78-0-67-0-1~-0-0-650-650-3~--|



Verse:
I don't really know who I am
It's time for me to take a stand
I need a change and I need it fast
I know that any day could be the last

G|--------------------------------------------------------------------|
D|--------------------------------------------------------------------|
A|--------------------------------------------------------------------|
D|-0-0-78-0-67-0-1~-0-0-78-0-67-0-1~-0-0-78-0-67-0-1~-0-0-650-650-3~--|

G|-------------------------------------------|
D|-------------------------------------------|
A|-----------------------------------1111-0--|
D|-0-0-78-0-67-0-1~-0-0-78-0-67-0-1~---------|



Chorus:
All I want is a little of the good life
All I need is to have a good time
Oh, the good life
All I want is a little of the good life
All I need is to have a good time
Oh, the good life

G|-----------------------------------------------|
D|-----------------------------------------------|
A|-----------------------------------------------|
D|-000-330555888--777-330555101010--888-8857777--|

G|---------------------------------------------|
D|---------------------------------------------|
A|---------------------------------------------|
D|-000-330555888--777-330555101010--8888-7777--|



Bridge:
Hold up, hold up
I always wanted it this way
(You never wanted it this way)
Hold up, hold up
I always wanted it this way
(You didn't ask for it this way)
I always wanted it this way

G|--------------------------------------------------------------|
D|--------------------------------------------------------------|
A|--0-------0------3333-11--------0-------0------33335-11-------|
D|-0-3-23--0-32023--------32023--0-3-23--0-32023---------32023--|


G|--------------------------------------------|
D|--------------------------------------------|
A|--0-----1111111-00000~--------1111-0000000--|
D|-0-3-23-------------------------------------|



Chorus:
All I want is a little of the good life
All I need is to have a good time
Oh, the good life
All I want is a little of the good life
All I need is to have a good time
Oh, the good life

G|-----------------------------------------------|
D|-----------------------------------------------|
A|-----------------------------------------------|
D|-000-330555888--777-330555101010--888-8857777--|

G|---------------------------------------------|
D|---------------------------------------------|
A|---------------------------------------------|
D|-000-330555888--777-330555101010--8888-7777--|



Outro:

G|-----------------------------------------------------------------------|
D|-----------------------------------------------------------------------|
A|-----------------------------------------------------------------------|  
D|-0-0-78-0-67-0-1~-0-0-78-0-67-0-1~-0-0-78-0-67-0-1~-0-0-650-650-3~-00--|





| /  slide up
| \  slide down
| h  hammer-on
| p  pull-off
| ~  vibrato
| +  harmonic
| x  Mute note
===============================================================================
Suggest correction
comments
print report bad tab
2 comments total.
0 reply
SK8nBASS 1,851 wrote on January 27 2010, 10:07 pm

Great Job!

0 reply
shadowhelix96 10 wrote on February 27 2012, 09:04 pm

D|-0-0-78-0-67-0-1~-0-0-78-0-67-0-1~-0-0-78-0-67-0-1~-0-0-650-650-3~--|

On this part, take the vibratos off of of the notes on the first fret, but keep the vibrato on the third. Other than that, this is perfect.

guest
You may want to rate the tab now too:
select rating
Please do not post tabs as comments. Select "correction" instead!