Oops, an error
Loading. Please wait.

The Good Life Tab

version 1
version 1

Interactive

26,536 views 48 this week
2 commentsread comments
1 2 3 4 5
excellent!
x 4
add to favorites
launch autoscroll
font size
0
reset
how to read this tab
guitar tuner
Tab Pro tools
  • play this tab
  • loop segment
  • change instrument
  • show fretboard
  • metronome
×
Best way to learn
"The Good Life"
Autoscroll
slow
fast
+/-
esc
set tempo
stop
Contributor
-------------------------------------------------------------------------------
                       THE GOOD LIFE: Three Days Grace
-------------------------------------------------------------------------------
Tabbed by: TheThirdDay
Email: TheThirdDaySH@gmail.com

Another awesome 3DG song in Drop D. This song has kind of a swing rhythm to it,
so it's a little hard to get the strumming right off the bat, but just listen
closely to the song and it shouldn't be too hard. I tabbed this myself
completely by ear, so it may not be accurate, but it sounds good to me. Rate
it based off it's accuracy.

Also, there are pinch-harmonics or bends/vibratos thrown in randomly in the
song; listen for 'em.


------------------------------------------------


Intro Riff:

e|----------------------------------------------|
b|----------------------------------------------|
g|----------------------------------------------|
d|-0-07805601-0-07805601-0-07805601-0-06506503--|
a|----------------------------------------------|
d|----------------------------------------------|

e|----------------------------------------------|
b|----------------------------------------------|
g|----------------------------------------------|
d|-0-07805601-0-07805601-0-07805601-0-06506503~-|
a|-0-07805601-0-07805601-0-07805601-0-06506503~-|
d|-0-07805601-0-07805601-0-07805601-0-06506503~-| x2

Verse Riff:

e|----------------------------------------------|
b|----------------------------------------------|
g|----------------------------------------------|
d|----------------------------------------------|
a|----------------------------------------------|
d|-0-07805605-0-07805601-0-07805601-0-06506503~-|
pm . .......  . .......  . .......  . .......

e|----------------------------------------------|
b|----------------------------------------------|
g|----------------------------------------------|
d|-----------------------8-8-8-8-87-------------|
a|-----------------------8-8-8-8-87-------------|
d|-0-07805601-0-07805601-8-8-8-8-87-------------|
pm . .......  . .......


Chorus Riff:

e|-----------------------------------------------|
b|-----------------------------------------------|
g|-----------------------------------------------|
d|-0-0-0-0-33-35-5-5-77-70-0-0-33-35-5-5-1010-10-|
a|-0-0-0-0-33-35-5-5-77-70-0-0-33-35-5-5-1010-10-|
d|-0-0-0-0-33-35-5-5-77-70-0-0-33-35-5-5-1010-10-|
                                         ^ 10's
e|--------------------|
b|--------------------|
g|--------------------|
d|-8-8-8-8-87-7-7-7-7-|
a|-8-8-8-8-87-7-7-7-7-|
d|-8-8-8-8-87-7-7-7-7-|

e|-----------------------------------------------|
b|-----------------------------------------------|
g|-----------------------------------------------|
d|-0-0-0-0-33-35-5-5-77-70-0-0-33-35-5-5-1010-10-|
a|-0-0-0-0-33-35-5-5-77-70-0-0-33-35-5-5-1010-10-|
d|-0-0-0-0-33-35-5-5-77-70-0-0-33-35-5-5-1010-10-|
                                         ^ 10's
e|--------------------|
b|--------------------|
g|--------------------|
d|-8-8-8-8-7----------|
a|-8-8-8-8-7----------|
d|-8-8-8-8-7-07805601-|
pm           .......


Bridge:

e|----------------------------------------------|
b|----------------------------------------------|
g|----------------------------------------------|
d|-0-8-5-3-50-8-0352-310-10-10-10-108-8-0352-3--|
a|-0-8-5-3-50-8-0352-310-10-10-10-108-8-0352-3--|
d|-0-8-5-3-50-8-0352-310-10-10-10-108-8-0352-3--| x2
                      ^ 10's
e|--------------------------------------------|
b|--------------------------------------------|
g|--------------------------------------------|
d|-0-8-5-3-58-8-8-8-8-8-8-8-7777777777777-----|
a|-0-8-5-3-58-8-8-8-8-8-8-8-7777777777777-----|
d|-0-8-5-3-58-8-8-8-8-8-8-8-7777777777777-----|

e|--------------------------------------------|
b|--------------------------------------------|
g|--------------------------------------------|
d|--------------------------------------------|
a|--------------------------------------------|
d|-5-5-58-8-800-0-00-08-8-8-8-87777777--------|


The outro is the same as the intro, ending on:

Guitar 1:             Guitar 2:
e|---------------|    e|----------------------|
b|---------------|    b|----------------------|
g|---------------|    g|----------------------|
d|-0-0-----------|    d|-12-12----------------|
a|-0-0-----------|    a|-12-12----------------|
d|-0-0-----------|    d|-12-12----------------|

UPDATE: 09/24/09: Fixed the main riff, it was I believe one note off.
comments
print report bad tab
2 comments total.
0 reply
Damian Andersen wrote on June 25 2010, 03:22 pm

Great tab dude sounds great

0 reply
olzhas2300 wrote on March 6 2016, 05:05 am

good except chorus part, it should be 8 instead of 7

I want to post or [tab]
guest
You may want to rate the tab now too:
select rating
Please do not post tabs as comments. Select "correction" instead!