Oops, an error
Loading. Please wait.

The Good Life Tab

version 1
version 1

Interactive

27,712 views 15 this week
2 commentsread comments
1 2 3 4 5
x 4
add to favorites
launch autoscroll
font size
0
reset
how to read this tab
guitar tuner
Autoscroll
slow
fast
+/-
esc
set tempo
stop
Help us to improve Ultimate-Guitar.com Take our survey!
×
Author
Artist: Three Days Grace
Song: The good life
Tabbed by: TheThirdDay
Email: TheThirdDaySH@gmail.com

[Intro Riff]
e|--------------------------------------------------------------------------|
b|--------------------------------------------------------------------------|
g|--------------------------------------------------------------------------|
d|-0-0-7-8-0-5-6-0-1-0-0-7-8-0-5-6-0-1-0-0-7-8-0-5-6-0-1-0-0-6-5-0-6-5-0-3--|
a|--------------------------------------------------------------------------|
d|--------------------------------------------------------------------------|

e|--------------------------------------------------------------------------|
b|--------------------------------------------------------------------------|
g|--------------------------------------------------------------------------|
d|-0-0-7-8-0-5-6-0-1-0-0-7-8-0-5-6-0-1-0-0-7-8-0-5-6-0-1-0-0-6-5-0-6-5-0-3~-|
a|-0-0-7-8-0-5-6-0-1-0-0-7-8-0-5-6-0-1-0-0-7-8-0-5-6-0-1-0-0-6-5-0-6-5-0-3~-|
d|-0-0-7-8-0-5-6-0-1-0-0-7-8-0-5-6-0-1-0-0-7-8-0-5-6-0-1-0-0-6-5-0-6-5-0-3~-| x2

[Verse Riff]
e|--------------------------------------------------------------------------|
b|--------------------------------------------------------------------------|
g|--------------------------------------------------------------------------|
d|--------------------------------------------------------------------------|
a|--------------------------------------------------------------------------|
d|-0-0-7-8-0-5-6-0-5-0-0-7-8-0-5-6-0-1-0-0-7-8-0-5-6-0-1-0-0-6-5-0-6-5-0-3~-|
pm . .......  . .......  . .......  . .......

e|---------------------------------------------------|
b|---------------------------------------------------|
g|---------------------------------------------------|
d|-----------------------8-8-8-8-8-7-----------------|
a|-----------------------8-8-8-8-8-7-----------------|
d|-0-0-7-8-0-5-6-0-1-0-0-7-8-0-5-6-0-1-8-8-8-8-8-7---|
pm . .......  . .......

[Chorus Riff]
e|------------------------------------------------------|
b|------------------------------------------------------|
g|------------------------------------------------------|
d|-0-0-0-0-3-3-3-5-5-5-7-7-7-0-0-0-3-3-3-5-5-5-10-10-10-|
a|-0-0-0-0-3-3-3-5-5-5-7-7-7-0-0-0-3-3-3-5-5-5-10-10-10-|
d|-0-0-0-0-3-3-3-5-5-5-7-7-7-0-0-0-3-3-3-5-5-5-10-10-10-|
                                         ^ 10's
e|--------------------|
b|--------------------|
g|--------------------|
d|-8-8-8-8-87-7-7-7-7-|
a|-8-8-8-8-87-7-7-7-7-|
d|-8-8-8-8-87-7-7-7-7-|

e|------------------------------------------------------|
b|------------------------------------------------------|
g|------------------------------------------------------|
d|-0-0-0-0-3-3-3-5-5-5-7-7-7-0-0-0-3-3-3-5-5-5-10-10-10-|
a|-0-0-0-0-3-3-3-5-5-5-7-7-7-0-0-0-3-3-3-5-5-5-10-10-10-|
d|-0-0-0-0-3-3-3-5-5-5-7-7-7-0-0-0-3-3-3-5-5-5-10-10-10-|
                                         ^ 10's
e|---------------------------|
b|---------------------------|
g|---------------------------|
d|-8-8-8-8-7-----------------|
a|-8-8-8-8-7-----------------|
d|-8-8-8-8-7-0-7-8-0-5-6-0-1-|
pm           .......

[Bridge]
e|-------------------------------------------------------|
b|-------------------------------------------------------|
g|-------------------------------------------------------|
d|-0-8-5-3-5-0-8-0-3-5-2-3-10-10-10-10-10-8-8-0-3-5-2-3--|
a|-0-8-5-3-5-0-8-0-3-5-2-3-10-10-10-10-10-8-8-0-3-5-2-3--|
d|-0-8-5-3-5-0-8-0-3-5-2-3-10-10-10-10-10-8-8-0-3-5-2-3--| x2
                      ^ 10's
e|---------------------------------------------------------|
b|---------------------------------------------------------|
g|---------------------------------------------------------|
d|-0-8-5-3-5-8-8-8-8-8-8-8-8-7-7-7-7-7-7-7-7-7-7-7-7-7-----|
a|-0-8-5-3-5-8-8-8-8-8-8-8-8-7-7-7-7-7-7-7-7-7-7-7-7-7-----|
d|-0-8-5-3-5-8-8-8-8-8-8-8-8-7-7-7-7-7-7-7-7-7-7-7-7-7-----|

e|--------------------------------------------------------|
b|--------------------------------------------------------|
g|--------------------------------------------------------|
d|--------------------------------------------------------|
a|--------------------------------------------------------|
d|-5-5-5-8-8-8-0-0-0-0-0-0-8-8-8-8-8-7-7-7-7-7-7-7--------|

(The outro is the same as the intro, ending on)

[Guitar 1]            [Guitar 2]
e|---------------|    e|----------------------|
b|---------------|    b|----------------------|
g|---------------|    g|----------------------|
d|-0-0-----------|    d|-12-12----------------|
a|-0-0-----------|    a|-12-12----------------|
d|-0-0-----------|    d|-12-12----------------|


************************************

| ~  Vibrato
| .  Staccato

************************************
Suggest correction
comments
print report bad tab
2 comments total.
0 reply
Damian Andersen 62 Jun 25, 2010 03:22 PM

Great tab dude sounds great

0 reply
olzhas2300 10 Mar 06, 2016 05:05 AM

good except chorus part, it should be 8 instead of 7

guest
You may want to rate the tab now too:
select rating
Wanna post a correction for this tab? Suggest correction