Oops, an error
Loading. Please wait.

The Good Life Bass Tab

version 2
version 2

Whole song

Interactive

1,924 views 1 this week
no commentswrite comment
1 2 3 4 5
1 last vote to show rating
add to favorites
launch autoscroll
font size
0
reset
guitar tuner
Autoscroll
slow
fast
+/-
esc
set tempo
stop
Help us to improve Ultimate-Guitar.com Take our survey!
×
Difficulty
Tuning
intermediate
D A D G B E
The Good Life by Three Days Grace
Tabbed by: JmH765
Tuning:Dropped D


Intro (Guitar)


Riff (x2)

g----------------------------------------------|
d----------------------------------------------|
a----------------------------------------------|
d-0---0-7h8-0-5h6-0-1----0---0-7h8-0-5h6-0-1---|

g----------------------------------------------|
d----------------------------------------------|
a----------------------------------------------|
d-0---0-7h8-0-5h6-0-1----0---0-6p5-06p5-0-3~~--|

Verse (Palm Mute)

g----------------------------------------------|
d----------------------------------------------|
a----------------------------------------------|
d-0---0-7h8-0-5h6-0-1----0---0-7h8-0-5h6-0-1---|
  .   . ... . ... .      .   . ... . ... .

g----------------------------------------------|
d----------------------------------------------|
a----------------------------------------------|
d-0---0-7h8-0-5h6-0-1~~--0---0-6p5-0-6p5-0-3~~-|
  .   . ... . ... .      .   . ... . ... .

g----------------------------------------------|
d----------------------------------------------|
a----------------------------------------------|
d-0---0-7h8-0-5h6-0-1~~--0---0-7h8-0-5h6-0-1~~-|
  .   . ... . ... .      .   . ... . ... .

g--------------------------------|
d--------------------------------|
a--------------------------------|
d-8---8---8---8---7--------------|

Chorus 1

g---------------------------------------------------------|
d---------------------------------------------------------|
a---------------------------------------------------------|
d-0--0--0--3--5-5--5-5--8--8--0--0--0--3-3-5--5--5--10-10-|

	
g-------------------------|
d-------------------------|
a-------------------------|
d-8--8--8--8--7--7--7--7--|(x2)(DONT PLAY 7's SECOND TIME THROUGH PLAY BOTTOM PART)

g-----------------------------------|
d-----------------------------------|
a-----------------------------------|
d-8--8--8--8--6p5-0-6p5-0-6p5-0-3~~-|


Riff (x2)

g----------------------------------------------|
d----------------------------------------------|
a----------------------------------------------|
d-0---0-7h8-0-5h6-0-1----0---0-7h8-0-5h6-0-1---|

g----------------------------------------------|
d----------------------------------------------|
a----------------------------------------------|
d-0---0-7h8-0-5h6-0-1----0---0-6p5-06p5-0-3~~--|


Verse 2 same
g----------------------------------------------|
d----------------------------------------------|
a----------------------------------------------|
d-0---0-7h8-0-5h6-0-1----0---0-7h8-0-5h6-0-1---|
  .   . ... . ... .      .   . ... . ... .

g----------------------------------------------|
d----------------------------------------------|
a----------------------------------------------|
d-0---0-7h8-0-5h6-0-1~~--0---0-6p5-0-6p5-0-3~~-|
  .   . ... . ... .      .   . ... . ... .

g----------------------------------------------|
d----------------------------------------------|
a----------------------------------------------|
d-0---0-7h8-0-5h6-0-1~~--0---0-7h8-0-5h6-0-1---|
  .   . ... . ... .      .   . ... . ... .

g--------------------------------|
d--------------------------------|
a--------------------------------|
d-8---8---8---8---7--------------|


Chorus 2 (x2)

g---------------------------------------------------------|
d---------------------------------------------------------|
a---------------------------------------------------------|
d-0--0--0--3--5-5--5-5--8--8--0--0--0--3-3-5--5--5--10-10-|

g-------------------------|
d-------------------------|
a-------------------------|
d-8--8--8--8--7--7--7--7--|

Bridge

g---------------------------------------------------------|
d---------------------------------------------------------|
a---------------------------------3-3-3-3--1-1------------|
d-0--7--3--2-3--0--7--3-2-0--2-3---------------3-2-0--2-3-|(x2)


g---------------------------------------------------------|
d---------------------------------------------------------|
a---------------------------------------------------------|
d-0--7--3--2-3--8--8--8--8--8--8--8--8--777-777-777-777-7-|


g-------------------------------------|
d-------------------------------------|
a-------------------------------------|
d-5---5-5--8---8-8--0-0---0---0-0-0---|

g-------------------------------------|
d-------------------------------------|
a-------------------------------------|(computerized voice)
d-8-8--8-8--8-8--8-8--777-777-7-------|

Chorus 3 (x2)

g---------------------------------------------------------|
d---------------------------------------------------------|
a---------------------------------------------------------|
d-0--0--0--3--5-5--5-5--8--8--0--0--0--3-3-5--5--5--10-10-|

g-------------------------|
d-------------------------|
a-------------------------|
d-8--8--8--8--7-----------|

Riff(Last time)

g----------------------------------------------|
d----------------------------------------------|
a----------------------------------------------|
d-0---0-7h8-0-5h6-0-1----0---0-7h8-0-5h6-0-1---|

g----------------------------------------------|
d----------------------------------------------|
a----------------------------------------------|
d-0---0-7h8-0-5h6-0-1----0---0-6p5-06p5-0-3~~--|

Suggest correction
Give kudos to tab author, rate the tab!
1 2 3 4 5
comments
print report bad tab
guest
You may want to rate the tab now too:
select rating
Wanna post a correction for this tab? Suggest correction