Oops, an error
Loading. Please wait.

Time Of Dying Bass Tab

version 1
version 1

Whole song

Interactive

7,357 views 12 this week
1 commentread comment
1 2 3 4 5
x 4
add to favorites
launch autoscroll
font size
0
reset
guitar tuner
×
Best way to learn
"Time Of Dying"
Autoscroll
slow
fast
+/-
esc
set tempo
stop
Author
Difficulty
  follow
intermediate
Three Days Grace - Time of dying
Album: One X

bass tab

by : doky 2007
taquilleros_de_sudamerica_maroyu_el_grupo_tropical_del_momento@hotmail.com

5-stringed bass
G D A E B

   INTRO
G-|----------------------------------|
D-|----------------------------------|
A-|----------------------------------|
E-|-3-----------------3--------1-----|
B-|------11-4-4p1-4p2-----11-4---414-|
                                                                              

   VERSO
G-|-----------|-----------|
D-|-----------|-----------|
A-|-----------|-----------|
E-|-4444-6666-|-3---------|
B-|-----------|-----1-111-|
                                                                              

   PRE-CORO
G-|-----------------|
D-|-----------------|
A-|-----------------|
E-|-1---4---1---6---|
B-|-----------------|
                                                                              

   CORO
G-|---------------*----|------------------|-----|
D-|---------------*----|------------------|-----|
A-|---------------*----|------------------|-----|
E-|------4--------*----|------------------|-666-|
B-|-1---------4---*666-|------------------|-----|
                        se combina con...                                      


G-|---------------------|------------------|
D-|---------------------|------------------|
A-|---------------------|------------------|
E-|-4--------------6----|------4----666666-|
B-|------1----4---------|-1----------------|
                                                                              
Agradezco al Rock y sus variaciones por haberme influido en mi vida, no hubiera cambiado en
nada desde 6to (1998) de primaria si no escuchaba Rock en 1ro de secundaria (2001).
el 2004 mas que nunca fue mi desahogo de toda una vida de soledad y nada interesante.

doky2007
Suggest correction
comments
print report bad tab
1 comment total.
0 reply
TheUsedRocker 307 Dec 28, 2007 01:43 PM

i was surprised on how accurate this was. good job! 5 stars

guest
You may want to rate the tab now too:
select rating
Wanna post a correction for this tab? Suggest correction