Oops, an error
Loading. Please wait.
We have an official Time Of Dying tab made by UG professional guitarists. Check out the tab »
×
16,649 views 18 this week
4 commentsread comments
1 2 3 4 5
x 7
add to favorites
launch autoscroll
font size
0
reset
guitar tuner
Autoscroll
slow
fast
+/-
esc
set tempo
stop
Author
"Time of Dying" - Three Days Grace

Tuning C, G, C, F

Intro x2
F|-------------------------------------|
C|-------------------------------------|
G|-------------------------------------|
C|-7---0--0-3--0-3-5-0-7--0--0-3-5-0-3-|

Verse
F|------------------------------------------------|
C|------------------------------------------------|
G|------------------------------------------------|
C|-8-10--7-0--0-0-0--7-0--0-0-0--7-0--0-0-0--8-10-|

Rest during Pre-chorus

Chorus
F|-------------------------------------|
C|-------------------------------------|
G|-------------------------------------|
C|-0-8---3-5--0-10--8-0--3-10--0-8--10-|

Verse 2
F|-------------------------------------------------------|
C|-------------------------------------------------------|
G|-------------------------------------------------------|
C|-7-0--0-0-0---7-0--0-0-0--7-0--0-0-0--7-0--0-0-0--8-10-|

Rest

Chorus

Rest

Chorus x2

Intro x2
Suggest correction
comments
print report bad tab
4 comments total. Showing first comments.
+2 reply
Basses, 10 Sep 24, 2012 06:05 PM

It sounds like theres something wrong with the chorus?

0 reply
widenaren 10 Feb 02, 2013 06:55 AM

chorus must be wrong, it doesn't sound right at all

0 reply
Haloquadratum 110 Feb 27, 2013 08:53 AM

the chorus is just copied from a normal guitar tab. with three days grace that sometimes works, but not in this case.

guest
You may want to rate the tab now too:
select rating
Wanna post a correction for this tab? Suggest correction