Oops, an error
Loading. Please wait.

Tv tab

94 views 3 this week
no commentswrite comment
1 2 3 4 5
3 more votes to show rating
add to favorites
×
Save as Personal and add changes to this tab that will be seen only by you. Learn more ›
×
You can save this tab as Personal to edit and correct it or add notes. All changes will be seen only by you. Learn more »
launch autoscroll
font size
0
reset
how to read this tab
guitar tuner
edit
Autoscroll
slow
fast
+/-
esc
set tempo
stop
[Intro]

e|--------------------------------------------------------------------------------|
B|--------------------------------------------------------------------------------|
G|-------------------------------------------------7--7/8-------------------------|
D|--10-----10-10-10-10------10-10------------------x--x-x-------------------------|
A|--8-xxxx-8--8--8--8--xxxx-8--8---7\-3-2-0--8--5--5--5/6---3-2-0--8--5---1-1-1---|
D|--8-xxxx-8--8--8--8--xxxx-8--8---7\-3-2-0--8--5-----------3-2-0--8--5---1-1-1---|
                                                                          * * *

[Main Riff]

e|---------------------------------------------------------------------------|
B|---------------------------------------------------------------------------|
G|----------------7--7/8-----------------------------------------------------|
D|----------------x--x-x-----------------------------------------------------|  Repeat
A|--3-2-0--8--5---5--5/6-----------------------------------------------------|
D|--3-2-0--8--5--------------------------------------------------------------|


[Verse]

e|-----------------------------------------------------------------------------|
B|-----------------------------------------------------------------------------|
G|---------7-------------------------------------------------------------------|
D|-----10--5-------------------------------------------------------------------| Repeat
A|-----8---5-------------------------------------------------------------------|
D|-----8---5-------------------------------------------------------------------|

e|---------------------------------------------------------------------------|
B|---------------------------------------------------------------------------|
G|---------7-----------------------------------------------------------------|
D|----10---5-----------------------------------------------------------------|
A|----8----5----5-5-5-5-5-5-5-5----------------------------------------------|
D|----8----5----5-5-5-5-5-5-5-5----------------------------------------------|
                * * * *

[Chorus]

e|---------------------------------------------------------------------------|
B|---------------------------------------------------------------------------|
G|-----10----10--12---9-9----------------------------------------------------|
D|-----x-----x----x---x-x---8--7---------------------------------------------|
A|--0--8--0--8---10---7-7---8--7---7---7h8-----------------------------------|
D|--0-----0-----------------8--7-7---7---------------------------------------|

e|---------------------------------------------------------------------------|
B|---------------------------------------------------------------------------|
G|----10--10-12--9-9---------------------------------------------------------|
D|----x---x--x---x-x--8--7--8-8----------------------------------------------|
A|-0--8-0-8--10--7-7--8--7--8-8----------------------------------------------|
D|-0----0-------------8--7--8-8----------------------------------------------|

e|---------------------------------------------------------------------------|
B|---------------------------------------------------------------------------|
G|-----10----10--12---9-9----------------------------------------------------|
D|-----x-----x----x---x-x---8--7---------------------------------------------|
A|--0--8--0--8---10---7-7---8--7---7---7h8-----------------------------------|
D|--0-----0-----------------8--7-7---7---------------------------------------|

e|--------------------------------------------------------------------------|
B|--------------------------------------------------------------------------|
G|----10----10-12--9-9------------------------------------------------------|
D|----x-----x---x--x-x--8--7------------------------------------------------|
A|-0--8--0--8--10--7-7--8--7------------------------------------------------|
D|-0-----0--------------8--7------------------------------------------------|


[Main Riff]

e|---------------------------------------------------------------------------|
B|---------------------------------------------------------------------------|
G|----------------7--7/8-----------------------------------------------------|
D|----------------x--x-x-----------------------------------------------------|  Repeat
A|--3-2-0--8--5---5--5/6-----------------------------------------------------|
D|--3-2-0--8--5--------------------------------------------------------------|


[Verse]

e|-----------------------------------------------------------------------------|
B|-----------------------------------------------------------------------------|
G|---------7-------------------------------------------------------------------|
D|-----10--5-------------------------------------------------------------------| Repeat
A|-----8---5-------------------------------------------------------------------|
D|-----8---5-------------------------------------------------------------------|

e|---------------------------------------------------------------------------|
B|---------------------------------------------------------------------------|
G|---------7-----------------------------------------------------------------|
D|----10---5-----------------------------------------------------------------|
A|----8----5----5-5-5-5-5-5-5-5----------------------------------------------|
D|----8----5----5-5-5-5-5-5-5-5----------------------------------------------|
                * * * *

[Chorus]

e|---------------------------------------------------------------------------|
B|---------------------------------------------------------------------------|
G|-----10----10--12---9-9----------------------------------------------------|
D|-----x-----x----x---x-x---8--7---------------------------------------------|
A|--0--8--0--8---10---7-7---8--7---7---7h8-----------------------------------|
D|--0-----0-----------------8--7-7---7---------------------------------------|

e|---------------------------------------------------------------------------|
B|---------------------------------------------------------------------------|
G|----10--10-12--9-9---------------------------------------------------------|
D|----x---x--x---x-x--8--7--8-8----------------------------------------------|
A|-0--8-0-8--10--7-7--8--7--8-8----------------------------------------------|
D|-0----0-------------8--7--8-8----------------------------------------------|

e|---------------------------------------------------------------------------|
B|---------------------------------------------------------------------------|
G|-----10----10--12---9-9----------------------------------------------------|
D|-----x-----x----x---x-x---8--7---------------------------------------------|
A|--0--8--0--8---10---7-7---8--7---7---7h8-----------------------------------|
D|--0-----0-----------------8--7-7---7---------------------------------------|

e|--------------------------------------------------------------------------|
B|--------------------------------------------------------------------------|
G|----10----10-12--9-9------------------------------------------------------|
D|----x-----x---x--x-x--8--7------------------------------------------------|
A|-0--8--0--8--10--7-7--8--7------------------------------------------------|
D|-0-----0--------------8--7------------------------------------------------|


[Bridge]

e|---------------------------------------------------------------------------|
B|-----------3---------------------------------------------------------------|
G|----12-11--2--11/12-11--5--------------------------------------------------|
D|-2---x-x---0--x---x-x---5---5-5-5--4---------------------------------------| Repeat x3
A|-2--10-9---0--9/-10\9---3---5-5-5--4---------------------------------------|
D|-2---------0----------------5-5-5--4---------------------------------------|

e|---------------------------------------------------------------------------|
B|------5-6-5----------------------5-6-5-------------------------------------|
G|-7--7----------------9-10-9--7-7-------------------------------------------|
D|-0----------10-10-10---------0---------10-10--10---7-7-7--7----------------|
A|-0----------0--8-------------0---------0--8--------7-7-7--7----------------|
D|-0----------0--8-------------0---------0--8--8-----7-7-7--7----------------|

e|---------------------------------------------------------------------------|
B|---------------------------------------------------------------------------|
G|--7--14---9----------------------------------------------------------------| Repeat x3
D|--x---x---x--10------------------------------------------------------------|
A|--5--12---7--8----7---7h8--------------------------------------------------|
D|-------------8--7---7------------------------------------------------------|

e|--------------------------------------------------------------------------|
B|--------------------------------------------------------------------------|
G|---7--14---9--------------------------------------------------------------|
D|---x---x---x--10--7--1-1-1------------------------------------------------|
A|---5--12---7--8---7--1-1-1------------------------------------------------|
D|--------------8---7--1-1-1------------------------------------------------|
                       * * *


[Outro]

e|---------------------------------------------------------------------------|
B|---------------------------------------------------------------------------|
G|----------------7--7/8-----------------------------------------------------|
D|----------------x--x-x-----------------------------------------------------|  Repeat x4
A|--3-2-0--8--5---5--5/6-----------------------------------------------------|
D|--3-2-0--8--5--------------------------------------------------------------|



************************************

| x  Dead note
| h  Hammer-on
| /  Slide up
| \  Slide down

************************************

            
            
Suggest correction
Creating personal tab
Creating personal tab
You can edit any tab online and save it as your Personal.

You can edit, replace or remove any tab part or add personal notes – all changes will be seen only by you.

Personal tabs can be accessed anytime from any device, even offline.
Learn more »
Give kudos to tab author, rate the tab!
1 2 3 4 5
comments
print report bad tab
guest
You may want to rate the tab now too:
select rating
Wanna post a correction for this tab? Suggest correction