Oops, an error
Loading. Please wait.
We have an official Wake Up tab made by UG professional guitarists. Check out the tab »
×
111,357 views 189 this week
36 commentsread comments
1 2 3 4 5
x 70
add to favorites
×
Save as Personal and add changes to this tab that will be seen only by you. Learn more ›
×
You can save this tab as Personal to edit and correct it or add notes. All changes will be seen only by you. Learn more »
launch autoscroll
font size
0
reset
how to read this tab
guitar tuner
edit
Autoscroll
slow
fast
+/-
esc
set tempo
stop
Drop D tuning with Capo 2

[Intro - Riff 1]
E|---|-----------------|---------------|-----------------|----------------|
B|---|-----------------|---------------|-----------------|----------------|
G|---|-----------------|---------------|-----------------|----------------|
D|---|-----4---5-4---4-|-----4-5--4----|-----7---5h7---7-|---7---5--4-----|
A|---|---2---2---------|---0-----------|---5-------------|----------------|
D|-0-|-2-----------2---|-0-----------0-|-5-----5-----5---|-0---0-------0--|

[Verse 1] 
(Guitar continues playing Riff 1 twice)
I’m not sober all the time
You bring me down at least you try
Until we see this eye to eye
I don’t want you

[Instrumental]
[Riff 1]
E|---|-----------------|---------------|-----------------|----------------|
B|---|-----------------|---------------|-----------------|----------------|
G|---|-----------------|---------------|-----------------|----------------|
D|---|-----4---5-4---4-|-----4-5--4----|-----7---5h7---7-|---7---5--4-----|
A|---|---2---2---------|---0-----------|---5-------------|----------------|
D|-0-|-2-----------2---|-0-----------0-|-5-----5-----5---|-0---0-------0--|

[Verse 2]
(Guitar continues playing Riff 1 twice)
I must be running out of luck
’Cause you’re just not drunk enough to f**k
And now I’ve had it up to here
And I don’t, I don’t want you

[Pre-chorus]
E|---------|---------|---------|---------------|
B|-5-5-5-5-|-7-7-7-7-|-8-8-8-8-|--10-10-10-10--|
G|-2-2-2-2-|-4-4-4-4-|-5-5-5-5-|---7--7--7--7--|
D|-2-2-2-2-|-4-4-4-4-|-5-5-5-5-|---7--7--7--7--|
A|---------|---------|---------|---------------|
D|---------|---------|---------|---------------|

E|---------|---------|---------|----------------|---------------|
B|-5-5-5-5-|-7-7-7-7-|-8-8-8-8-|-7-7-7-8---10---|-7-7-7-8---7---|
G|-2-2-2-2-|-4-4-4-4-|-5-5-5-5-|-7-7-7-7----7---|-7-7-7-7---7---|
D|-2-2-2-2-|-4-4-4-4-|-5-5-5-5-|-7-7-7-7----7---|-7-7-7-7---7---|
A|---------|---------|---------|----------------|---------------|
D|---------|---------|---------|----------------|---------------|

It took so long to say
You walked away from me
When I need you

[Chorus]
E|--------------|--------------|--------------|--------------|
B|--------------|--------------|--------------|--------------|
G|--------------|--------------|--------------|--------------|
D|-0-2-2-0-2----|-2-0--0--0--0-|-5-5-5-5-5----|-5-0--0--0--0-|
A|-0-2-2-0-2----|-2-0--0--0--0-|-5-5-5-5-5----|-5-0--0--0--0-|
D|-0-2-2-0-2----|-2-0--0--0--0-|-5-5-5-5-5----|-5-0--0--0--0-|

E|--------------|----------------|---------------|----------------|
B|--------------|----------------|---------------|----------------|
G|--------------|-4-4-4-4-4-4-5--|-(5)-5-5--5----|-7-7--7--7------|
D|-0-2-2-0-2----|-4-4-4-4-4-4-5--|-(5)-5-5--5----|-7-7--7--7--(0)-|
A|-0-2-2-0-2----|-2-2-2-2-2-2-3--|-(3)-3-3--3----|-5-5--5--5--(0)-|
D|-0-2-2-0-2----|----------------|---------------|------------(0)-|

Wake up, I’m pounding on the door
I’m not the man I was before
Where the hell are you when I need you
Wake up, I’m pounding on the door
I won’t hurt you anymore
Where the hell are you when I need you

[Instrumental]
[Riff 1]
E|---|-----------------|---------------|-----------------|----------------|
B|---|-----------------|---------------|-----------------|----------------|
G|---|-----------------|---------------|-----------------|----------------|
D|---|-----4---5-4---4-|-----4-5--4----|-----7---5h7---7-|---7---5--4-----|
A|---|---2---2---------|---0-----------|---5-------------|----------------|
D|-0-|-2-----------2---|-0-----------0-|-5-----5-----5---|-0---0-------0--|

[Verse 3] 
(Guitar continues playing Riff 1 twice)
I’m not angry all the time
You push me down at least you try
Until we see this eye to eye
I don’t want you

[Pre-chorus]
E|---------|---------|---------|---------------|
B|-5-5-5-5-|-7-7-7-7-|-8-8-8-8-|--10-10-10-10--|
G|-2-2-2-2-|-4-4-4-4-|-5-5-5-5-|---7--7--7--7--|
D|-2-2-2-2-|-4-4-4-4-|-5-5-5-5-|---7--7--7--7--|
A|---------|---------|---------|---------------|
D|---------|---------|---------|---------------|

E|---------|---------|---------|----------------|---------------|
B|-5-5-5-5-|-7-7-7-7-|-8-8-8-8-|-7-7-7-8---10---|-7-7-7-8---7---|
G|-2-2-2-2-|-4-4-4-4-|-5-5-5-5-|-7-7-7-7----7---|-7-7-7-7---7---|
D|-2-2-2-2-|-4-4-4-4-|-5-5-5-5-|-7-7-7-7----7---|-7-7-7-7---7---|
A|---------|---------|---------|----------------|---------------|
D|---------|---------|---------|----------------|---------------|

[Chorus]
E|--------------|--------------|--------------|--------------|
B|--------------|--------------|--------------|--------------|
G|--------------|--------------|--------------|--------------|
D|-0-2-2-0-2----|-2-0--0--0--0-|-5-5-5-5-5----|-5-0--0--0--0-|
A|-0-2-2-0-2----|-2-0--0--0--0-|-5-5-5-5-5----|-5-0--0--0--0-|
D|-0-2-2-0-2----|-2-0--0--0--0-|-5-5-5-5-5----|-5-0--0--0--0-|

E|--------------|----------------|---------------|----------------|
B|--------------|----------------|---------------|----------------|
G|--------------|-4-4-4-4-4-4-5--|-(5)-5-5--5----|-7-7--7--7------|
D|-0-2-2-0-2----|-4-4-4-4-4-4-5--|-(5)-5-5--5----|-7-7--7--7--(0)-|
A|-0-2-2-0-2----|-2-2-2-2-2-2-3--|-(3)-3-3--3----|-5-5--5--5--(0)-|
D|-0-2-2-0-2----|----------------|---------------|------------(0)-|

[Bridge] 
[Riff 2]
E|---------|---------|---------|-------------|
B|-5-5-5-5-|-7-7-7-7-|-8-8-8-8-|-10-10-10-10-|
G|-2-2-2-2-|-4-4-4-4-|-5-5-5-5-|--7--7--7--7-|
D|-2-2-2-2-|-4-4-4-4-|-5-5-5-5-|--7--7--7--7-|
A|---------|---------|---------|-------------|
D|---------|---------|---------|-------------|

E|---------|---------|---------|----------------|
B|-5-5-5-5-|-7-7-7-7-|-8-8-8-8-|-7-7-7-8---10---|
G|-2-2-2-2-|-4-4-4-4-|-5-5-5-5-|-7-7-7-7----7---|
D|-2-2-2-2-|-4-4-4-4-|-5-5-5-5-|-7-7-7-7----7---|
A|---------|---------|---------|----------------|
D|---------|---------|---------|----------------|

(Guitar repeats Riff 2)
It took so long to say
You walked away from me
When I need you

E|------------------|---------------|
B|--7-7-7-8---10----|-7-7-7-8---7---|
G|o-7-7-7-7----7---o|-7-7-7-7---7---|
D|o-7-7-7-7----7---o|-7-7-7-7---7---|
A|------------------|---------------|
D|------------------|---------------|

E|--------------|--------------|--------------|--------------|
B|--------------|--------------|--------------|--------------|
G|--------------|--------------|--------------|--------------|
D|-0-2-2-0-2----|-2-0--0--0--0-|-5-5-5-5-5----|-5-0--0--0--0-|
A|-0-2-2-0-2----|-2-0--0--0--0-|-5-5-5-5-5----|-5-0--0--0--0-|
D|-0-2-2-0-2----|-2-0--0--0--0-|-5-5-5-5-5----|-5-0--0--0--0-|

[Chorus]
E|--------------|--------------|--------------|--------------|
B|--------------|--------------|--------------|--------------|
G|--------------|--------------|--------------|--------------|
D|-0-2-2-0-2----|-2-0--0--0--0-|-5-5-5-5-5----|-5-0--0--0--0-|
A|-0-2-2-0-2----|-2-0--0--0--0-|-5-5-5-5-5----|-5-0--0--0--0-|
D|-0-2-2-0-2----|-2-0--0--0--0-|-5-5-5-5-5----|-5-0--0--0--0-|

E|--------------|----------------|---------------|----------------|
B|--------------|----------------|---------------|----------------|
G|--------------|-4-4-4-4-4-4-5--|-(5)-5-5--5----|-7-7--7--7------|
D|-0-2-2-0-2----|-4-4-4-4-4-4-5--|-(5)-5-5--5----|-7-7--7--7--(0)-|
A|-0-2-2-0-2----|-2-2-2-2-2-2-3--|-(3)-3-3--3----|-5-5--5--5--(0)-|
D|-0-2-2-0-2----|----------------|---------------|------------(0)-|


************************************

| h    Hammer-on
| (n)  Ghost note

************************************

            
            
Suggest correction
Creating personal tab
Creating personal tab
You can edit any tab online and save it as your Personal.

You can edit, replace or remove any tab part or add personal notes – all changes will be seen only by you.

Personal tabs can be accessed anytime from any device, even offline.
Learn more »
comments
print report bad tab
36 comments total. Showing first comments.
0 reply
ferius 10 Nov 13, 2003 07:00 PM

Nice job! This Wake Up tab is better than the old one... but keep trying...! My fav. song!

+1 reply
surfhaleysurf 160 May 24, 2004 08:00 PM

this tab is awesome...keep doing them man.. props to the 3dg fans!!!


-3dgrocker

0 reply
Newmaniac 96 Sep 03, 2004 08:00 PM

just curious, how can you have an open 0 on the 6 string with a Capo on 2?

guest
You may want to rate the tab now too:
select rating
Wanna post a correction for this tab? Suggest correction