Oops, an error
Loading. Please wait.

Wake Up Bass Tab

version 2
version 2

Whole song

Interactive

1,067 views 1 this week
no commentswrite comment
1 2 3 4 5
please rate
add to favorites
launch autoscroll
font size
0
reset
guitar tuner
Autoscroll
slow
fast
+/-
esc
set tempo
stop
Help us to improve Ultimate-Guitar.com Take our survey!
×
Author
#----------------------------------PLEASE NOTE---------------------------------#
#This file is the author's own work and represents their interpretation of the #
#song. You may only use this file for private study, scholarship, or research. #
#------------------------------------------------------------------------------#

WAKE UP (Bassline)
As recorded by Three Days Grace



Transcribed by Gary Ramsey

 

 

Gtr I (E A D G) - 'Bass'


  Q=77
 4/4
  Gtr I
  W          W          W          W
|----------|----------|----------|------|
|----------|----------|----------|------|
|----------|----------|----------|------|
|----------|----------|----------|------|


  W          W          E. S S S S S S S E E. S
|----------|----------|-------------------------|
|----------|----------|-------------------------|
|----------|----------|-------------------------|
|----------|----------|-2--0-2-2---2-0-0-0-0--0-|


  E. S S S S S S S E E. S   E. S S S S S S S E E. S   E. S S S S S S S E E. S
|-------------------------|-------------------------|-------------------------|
|-------------------------|-------------------------|-------------------------|
|-0--0-0-0---0------------|-------------------------|-0--0-0-0---0------------|
|--------------0-0-0-0--0-|-2--0-2-2---2-0-0-0-0--0-|--------------0-0-0-0--0-|


  E. S S S S S S S E E. S   E. S S S S S S S S S S S S S   E S S E E E S S E E
|-------------------------|------------------------------|---------------------|
|-------------------------|------------------------------|---------------------|
|-------------------------|-0--0-0-0---0-----------------|-2-2-2-2-2-4-4-4-4-4-|
|-2--0-2-2---2-0-0-0-0--0-|--------------0-0-0-0-0-0-0-0-|---------------------|


  E S S E E E S S E E   E S S E E E S S E E
|---------------------|---------------------|
|---------------------|---------------------|
|-5-5-5-5-5-----------|---------------------|
|-----------0-0-0-0-0-|-7-7-7-7-7-9-9-9-9-9-|


                               2/4
   E  S  S  E  E S E S +S  E.   S E S +S  E.
|-----------------------------|--------------|
|-----------------------------|--------------|
|-----------------------------|--------------|
|-10-10-10-10-10-0-0-0-(0)-0--|-0-0-0-(0)-0--|


 4/4
  S S S S E E S E S +S  E.   S S S S E E S E S +S  E.
|--------------------------|--------------------------|
|--------------------------|--------------------------|
|--------------------------|-0-0-0-0-0---0------------|
|-0-2-2-0-2---2-0-0-(0)-0--|---------------0-0-(0)-0--|


  S S S S E E S S S S S S E
|----------------------------|
|----------------------------|
|-------------4-4-4-4-4-4-5--|
|-0-2-2-0-2------------------|


  +S  S S S E. S S E S +S  E.
|-----------------------------|
|-----------------------------|
|-(5)-5-5-5-5--5--------------|
|----------------0-0-0-(0)-0--|


  S S S S E E S E S +S  E.   S S S S E E S E S +S  E.
|--------------------------|--------------------------|
|--------------------------|--------------------------|
|--------------------------|-0-0-0-0-0---0------------|
|-0-2-2-0-2---2-0-0-(0)-0--|---------------0-0-(0)-0--|


  S S S S E E S S S S S S E   +S  S S S E. S S E S +S  E.   Q  E. S Q  E. S
|---------------------------|-----------------------------|------------------|
|---------------------------|-----------------------------|------------------|
|-------------4-4-4-4-4-4-5-|-(5)-5-5-5-5--5--------------|------------------|
|-0-2-2-0-2-----------------|----------------0-0-0-(0)-0--|-2--2--2-0--0--0--|


  Q  E. S Q  E. S   E. S S S S S S S E E. S   E. S S S S S S S E E. S
|-----------------|-------------------------|-------------------------|
|-----------------|-------------------------|-------------------------|
|-0--0--0---------|-------------------------|-0--0-0-0---0------------|
|---------0--0--0-|-2--0-2-2---2-0-0-0-0--0-|--------------0-0-0-0--0-|


  E. S S S S S S S E E. S   E. S S S S S S S S S S S S S   E S S E E E S S E E
|-------------------------|------------------------------|---------------------|
|-------------------------|------------------------------|---------------------|
|-------------------------|-0--0-0-0---0-----------------|-2-2-2-2-2-4-4-4-4-4-|
|-2--0-2-2---2-0-0-0-0--0-|--------------0-0-0-0-0-0-0-0-|---------------------|


  E S S E E E S S E E   E S S E E E S S E E
|---------------------|---------------------|
|---------------------|---------------------|
|-5-5-5-5-5-----------|---------------------|
|-----------0-0-0-0-0-|-7-7-7-7-7-9-9-9-9-9-|


                               2/4
   E  S  S  E  E S E S +S  E.   S E S +S  E.
|-----------------------------|--------------|
|-----------------------------|--------------|
|-----------------------------|--------------|
|-10-10-10-10-10-0-0-0-(0)-0--|-0-0-0-(0)-0--|


 4/4
  S S S S E E S E S +S  E.   S S S S E E S E S +S  E.
|--------------------------|--------------------------|
|--------------------------|--------------------------|
|--------------------------|-0-0-0-0-0---0------------|
|-0-2-2-0-2---2-0-0-(0)-0--|---------------0-0-(0)-0--|


  S S S S E E S S S S S S E
|----------------------------|
|----------------------------|
|-------------4-4-4-4-4-4-5--|
|-0-2-2-0-2------------------|


  +S  S S S E. S S E S +S  E.
|-----------------------------|
|-----------------------------|
|-(5)-5-5-5-5--5--------------|
|----------------0-0-0-(0)-0--|


  S S S S E E S E S +S  E.   S S S S E E S E S +S  E.
|--------------------------|--------------------------|
|--------------------------|--------------------------|
|--------------------------|-0-0-0-0-0---0------------|
|-0-2-2-0-2---2-0-0-(0)-0--|---------------0-0-(0)-0--|


  S S S S E E S S S S S S E
|---------------------------|
|---------------------------|
|-------------4-4-4-4-4-4-5-|
|-0-2-2-0-2-----------------|


  +S  S S S E. S S E S +S  E.   E S S E E E S S E E
|-----------------------------|----------------------|
|-----------------------------|----------------------|
|-(5)-5-5-5-5--5--------------|----------------------|
|----------------0-0-0-(0)-0--|-7-7-7-7-7-9-9-9-9-9--|


   E  S  S  E  E E S S E E   E S S E E E S S E E    E  S  S  E  E E S S E E
|--------------------------|---------------------|--------------------------|
|--------------------------|---------------------|--------------------------|
|--------------------------|---------------------|--------------------------|
|-10-10-10-10-10-0-0-0-0-0-|-7-7-7-7-7-9-9-9-9-9-|-10-10-10-10-10-0-0-0-0-0-|


  E S S E E E S S E E    E  S  S  E  E E S S E E   E S S E E E S S E E
|---------------------|--------------------------|---------------------|
|---------------------|--------------------------|---------------------|
|---------------------|--------------------------|---------------------|
|-7-7-7-7-7-9-9-9-9-9-|-10-10-10-10-10-0-0-0-0-0-|-7-7-7-7-7-9-9-9-9-9-|


                               2/4
   E  S  S  E  E S E S +S  E.   S E S +S  E.
|-----------------------------|--------------|
|-----------------------------|--------------|
|-----------------------------|--------------|
|-10-10-10-10-10-0-0-0-(0)-0--|-0-0-0-(0)-0--|


 4/4
  S E S +S  E. S E S +S  E.   W
|---------------------------|------|
|---------------------------|------|
|---------------------------|------|
|-0-0-0-(0)-0--0-0-0-(0)-0--|------|


  H    S E S +S  E.   S S S S E E S E S +S  E.   S S S S E E S E S +S  E.
|-------------------|--------------------------|--------------------------|
|-------------------|--------------------------|--------------------------|
|------0------------|--------------------------|-0-0-0-0-0---0------------|
|--------0-0-(0)-0--|-0-2-2-0-2---2-0-0-(0)-0--|---------------0-0-(0)-0--|


  S S S S E E S S S S S S E
|---------------------------|
|---------------------------|
|-------------4-4-4-4-4-4-5-|
|-0-2-2-0-2-----------------|


  +S  S S S E. S S E S +S  E.   S S S S E E S E S +S  E.
|-----------------------------|--------------------------|
|-----------------------------|--------------------------|
|-(5)-5-5-5-5--5--------------|--------------------------|
|----------------0-0-0-(0)-0--|-0-2-2-0-2---2-0-0-(0)-0--|


  S S S S E E S E S +S  E.   S S S S E E S S S S S S E
|--------------------------|---------------------------|
|--------------------------|---------------------------|
|-0-0-0-0-0---0------------|-------------4-4-4-4-4-4-5-|
|---------------0-0-(0)-0--|-0-2-2-0-2-----------------|


  +S  S S S E. S S E S +S  E.
|-----------------------------*|
|-----------------------------*|
|-(5)-5-5-5-5--5--------------*|
|----------------0-0-0-(0)-0--*|




--------------------------------------------------------------------------------


Duration Legend
---------------
W - whole; H - half; Q - quarter; E - 8th; S - 16th; T - 32nd; X - 64th; a - acciaccatura
+ - note tied to previous; . - note dotted; .. - note double dotted
Uncapitalized letters represent notes that are staccato (1/2 duration)
Irregular groupings are notated above the duration line
Duration letters will always appear directly above the note/fret number it represents the
duration for.  Duration letters with no fret number below them represent rests.  Multi-
bar rests are notated in the form Wxn, where n is the number of bars to rest for.  Low
melody durations appear below the staff

Tablature Legend
----------------
 h   - hammer-on
 p   - pull-off
 b   - bend
 pb  - pre-bend
 r   - bend release (if no number after the r, then release immediately)
 /\  - slide into or out of (from/to "nowhere")
 s   - legato slide
 S   - shift slide
 - natural harmonic
[n]  - artificial harmonic
n(n) - tapped harmonic
 ~   - vibrato
 tr  - trill
 T   - tap
 TP  - trem. picking
 PM  - palm muting
\n/  - tremolo bar dip; n = amount to dip
 \n  - tremolo bar down
 n/  - tremolo bar up
/n\  - tremolo bar inverted dip
 =   - hold bend; also acts as connecting device for hammers/pulls
 <> - volume swell (louder/softer)
 x   - on rhythm slash represents muted slash
 o   - on rhythm slash represents single note slash

Misc Legend
-----------
 |  - bar
||  - double bar
||o - repeat start
o|| - repeat end
*|  - double bar (ending)
 :  - bar (freetime)
 $  - Segno
 &  - Coda
Tempo markers -  = BPM(8/16=s8/s16), where s8 = swing 8ths, s16 = swing 16ths



--------------------------------------------------------------------------------

** Generated using Power Tab Editor by Brad Larsen: The Official Power Tab Web Site
Suggest correction
What's this?
You can suggest a correction to this tab. Community and Mods will review your correction and vote to approve or reject it.
comments
We did not receive enough feedback on this tab! Please rate:
print report bad tab
1 2 3 4 5
guest
You may want to rate the tab now too:
select rating
Please do not post tabs as comments. Select "correction" instead!