Oops, an error
Loading. Please wait.

Without You Bass Tab

version 1
version 1

Whole song

Interactive

1,838 views 1 this week
no commentswrite comment
1 2 3 4 5
excellent!
x 4
add to favorites
launch autoscroll
font size
0
reset
guitar tuner
Autoscroll
slow
fast
+/-
esc
set tempo
stop
Help us to improve Ultimate-Guitar.com Take our survey!
×
Author
Tuning
D A D G B E
-------------------------------------------------------------------------------
			     WITHOUT YOU - Three Days Grace
-------------------------------------------------------------------------------

Tabbed By : mariewong

Tuning: Drop D




Intro:

G|-----------------------------|
D|-----------------------------|
A|-222222-555555---------------|  [x2]
D|---------------555555555555--|



Verse:
What if I walked without you
What if I ran without you
What if I stand without you
I could not go on
What if I lived without you
What if I loved without you
What if I died without you
I could not go on

G|--------------------------------------------------------|
D|--------------------------------------------------------|
A|-222222-555555--------------222222-555555---------------|
D|---------------555555555555---------------555555555555--|

G|--------------------------------------------------------|
D|--------------------------------------------------------|
A|-000000-222222--------------000000-222222---------------|
D|---------------555555555555---------------555555555555--|

G|--------------------------------------------------------|
D|--------------------------------------------------------|
A|-222222-555555--------------222222-555555---------------|
D|---------------555555555555---------------555555555555--|

G|----------------------------------------------------|
D|----------------------------------------------------|
A|-000000-222222--------------000000-22222222---------|
D|---------------555555555555-----------------5(x16)--|



Chorus:
You left my side tonight
And I, I just don't feel right
But I, I can't let you out of sight
Without you I'm no one, I'm nothing at all

G|------------------------------------------------------|
D|------------------------------------------------------|
A|-3(x16)--------------------3(x16)---------------------|
D|--------0000-7777-5555-454--------0000-7777-5555-454--|

G|--------------------------------------------------|
D|--------------------------------------------------|
A|-3(x12)-2222--------------------------------------|
D|-------------0000-7777-5555-454---4(x8)-2-2-2-2~--|



Pre-verse:

G|-----------------------------|
D|-----------------------------|
A|-222222-555555---------------|  [x2]
D|---------------555555555555--|



Verse:
What if I lie without you
What if I rise without you
And what if I dream without you
I could not go on

G|--------------------------------------------------------|
D|--------------------------------------------------------|
A|-222222-555555--------------222222-555555---------------|
D|---------------555555555555---------------555555555555--|

G|----------------------------------------------------|
D|----------------------------------------------------|
A|-000000-222222--------------000000-22222222---------|
D|---------------555555555555-----------------5(x16)--|



Chorus:
You left my side tonight
And I, I just don't feel right
But I, I can't let you out of sight
Without you I'm no one, I'm nothing at all

G|------------------------------------------------------|
D|------------------------------------------------------|
A|-3(x16)--------------------3(x16)---------------------|
D|--------0000-7777-5555-454--------0000-7777-5555-454--|

G|--------------------------------------------------|
D|--------------------------------------------------|
A|-3(x12)-2222----------------------2(x8)-0-0-0-0~--|
D|-------------0000-7777-5555-454-------------------|



Bridge:

G|-----------------------------------------------------|
D|-----------------------------------------------------|
A|-5-5-55-3-2-3~-3-3-33---------5~---------------------|
D|----------------------3-3--55----55-7-8--8-7--7-7-7--|

G|-----------------------------------------------|
D|-----------------------------------------------|
A|-5-5-55-3-2-3~-3-3-33---------5~---------------|
D|----------------------3-3--55----55-7-8--8-7~--|



Break:
You left my side tonight
And I, I just don't feel right
But I, I can't let you out of sight



Chorus:
Without you I'm no one, I'm nothing at all
You left my side tonight
And I, I just don't feel right
But I, I can't let you out of sight
Without you I'm no one, I'm nothing at all, nothing at all

G|-------------------------------------------------------------------|
D|-------------------------------------------------------------------|
A|--------------3(x16)--------------------3(x16)---------------------|
D|-4(x8)-2(x8)---------0000-7777-5555-454--------0000-7777-5555-454--|


G|------------------------------------------------------------------------|
D|------------------------------------------------------------------------|
A|-3(x12)-2222----------------------2(x8)-0-0-0-0~-0-0-0--2(x8)-0-0-0-0~--|
D|-------------0000-7777-5555-454-----------------------------------------|







| /  slide up
| \  slide down
| h  hammer-on
| p  pull-off
| ~  vibrato
| +  harmonic
| x  Mute note
===============================================================================
Suggest correction
comments
print report bad tab
guest
You may want to rate the tab now too:
select rating
Wanna post a correction for this tab? Suggest correction