Oops, an error
Loading. Please wait.

Without You solo tab

version 1
version 1

Solo

Whole song

Interactive

2,187 views 3 this week
4 commentsread comments
1 2 3 4 5
x 3
add to favorites
×
Save as Personal and add changes to this tab that will be seen only by you. Learn more ›
×
You can save this tab as Personal to edit and correct it or add notes. All changes will be seen only by you. Learn more »
launch autoscroll
font size
0
reset
how to read this tab
guitar tuner
edit
Autoscroll
slow
fast
+/-
esc
set tempo
stop
Okay, so heres a more accurate tab of the solo around 2:00 to about 2:20. Hope 
this is helpfull... this is my first tab. 
Comment and let me know what you think :)

Artist: Three Days Grace
Song: Without You (Guitar Solo) 
Tuning: Drop D
Tabbed by: TheOtherside.

E|-12--12-14-15-14---14-14-12-17-15---15-15-14-12-15-14-12---12h13---|
B|-------------------------------------------------------------------|
G|-------------------------------------------------------------------|
D|-------------------------------------------------------------------|
A|-------------------------------------------------------------------|
D|-------------------------------------------------------------------|

E|-13-13-13---13--------------14-14-17-14-15---15-15-14-12--15-14-12-|
B|---------11---10-10-10-10------------------------------------------|
G|-------------------------------------------------------------------|
D|-------------------------------------------------------------------|
A|-------------------------------------------------------------------|
D|-------------------------------------------------------------------|

E|-12h13-13-13-13----13----------------------------------------------|
B|----------------11----10-------------------------------------------|
G|-------------------------------------------------------------------|
D|-------------------------------------------------------------------|
A|-------------------------------------------------------------------|
D|-------------------------------------------------------------------|

(Hold last note for a little while)

            
            
Suggest correction
Creating personal tab
Creating personal tab
You can edit any tab online and save it as your Personal.

You can edit, replace or remove any tab part or add personal notes – all changes will be seen only by you.

Personal tabs can be accessed anytime from any device, even offline.
Learn more »
Give kudos to tab author, rate the tab!
1 2 3 4 5
comments
print report bad tab
4 comments total. Showing first comments.
0 reply
codykellar95 10 Jul 09, 2013 12:22 AM

It sounds ok, but it is hard to follow from this tab. It would be nice if it was spaced out better... i.e. the notes that went faster were closer together than the ones that were slow.

0 reply
TheOtherside. 26 Jul 21, 2013 08:12 PM

Thanks for letting me know! I made this a long time ago and I was pretty new to guitar. I'll definitely remember that next time.

0 reply
Mordoklejka 78 May 08, 2014 10:30 PM, edited on May 9 2014, 02:31 am

I think that should be

guest
You may want to rate the tab now too:
select rating
Wanna post a correction for this tab? Suggest correction