Oops, an error
Loading. Please wait.

Without You tab

version 1
version 1

Whole song

Interactive

16,077 views 1 this week
6 commentsread comments
1 2 3 4 5
x 9
add to favorites
×
Save as Personal and add changes to this tab that will be seen only by you. Learn more ›
×
You can save this tab as Personal to edit and correct it or add notes. All changes will be seen only by you. Learn more »
launch autoscroll
font size
0
reset
how to read this tab
guitar tuner
edit
Autoscroll
slow
fast
+/-
esc
set tempo
stop
-------------------------------------------------------------------------------
                       WITHOUT YOU: Three Days Grace
-------------------------------------------------------------------------------
Tabbed by: TheThirdDay
Email: TheThirdDaySH@gmail.com

One of my favorites off of Life Starts Now. Pretty basic song, even the solo is
easy. Played from Drop D. I tabbed this partially by mariewong's bass tab and
ear. What mariewong tabbed seems pretty good, but the parts I tabbed may be off.
Rate it based off it's accuracy.

Also, thanks to kiklogik at YouTube, who's cover has used as a reference for
parts of the tab. Video can be found here:
http://www.youtube.com/watch?v=u-S1oh1cy2o


------------------------------------------------


Intro Riff:

Guitar 2:

e|----------------------------------------------|
b|----------------------------------------------|
g|----------------------------------------------|
d|----------------------------------------------|
a|----------------------------------------------|
d|-999999-121212121212-555555555555-------------| x2
          ^12's


Verse Riff:

Guitar 2:

e|----------------------------------------------|
b|----------------------------------------------|
g|----------------------------------------------|
d|----------------------------------------------|
a|----------------------------------------------|
d|-999999-121212121212-555555555555-------------| x2
          ^12's

e|----------------------------------------------|
b|----------------------------------------------|
g|----------------------------------------------|
d|----------------------------------------------|
a|----------------------------------------------|
d|-777777-999999-555555555555-------------------| x2

(While Guitar 2 repeats the above,) Guitar 1:

e|----------------------------------------------|
b|----------------------------------------------|
g|-----------------------12-12------------------|
d|-9-9-11-11-11-11-12-12------------------------|
a|-----------------------------8-8-8-8-8-8-8...-|
d|----------------------------------------------| x2
       ^11's       ^..&..^12's        ^repeat 8's until next repetition
Chorus Riff:

Guitar 2:

e|----------------------------------------------|
b|----------------------------------------------|
g|----------------------------------------------|
d|-10-10-10-10-10-10-10-10-0-0-0-0-0-0-0-0------|
a|-10-10-10-10-10-10-10-10-0-0-0-0-0-0-0-0------|    (First 2 repetitions=1/8ths
d|-10-10-10-10-10-10-10-10-0-0-0-0-0-0-0-0------| x3  Third repetition=1/16ths)
   ^ 10's

Guitar 1 (This could be off, feedback is appreciated):

e|----------------------------------------------|
b|----------------------------------------------|
g|-5-7-7-5-5-5-5-5------------------------------|
d|-----------------0-0-7-7-5-5-4h5p4------------|
a|----------------------------------------------|
d|----------------------------------------------| x2

e|----------------------------------------------|
b|----------------------------------------------|
g|-55-7777-555555-4444--------------------------|
d|---------------------0000-777-5555-454--------|
a|----------------------------------------------|
d|----------------------------------------------| x1

Guitars 1 & 2:

e|----------------------------------------------|
b|----------------------------------------------|
g|----------------------------------------------|
d|-9-9-9-9-9-9-9-997-7-7-7----------------------|
a|-9-9-9-9-9-9-9-997-7-7-7----------------------|
d|-9-9-9-9-9-9-9-997-7-7-7----------------------| x1


Solo (Not 100% sure of this):

Guitar 1:

e|-12--12-14h15p14--14-12-15h17p15-|
b|---------------------------------|
g|---------------------------------|
d|---------------------------------|
a|---------------------------------|
d|---------------------------------|


e|-14-15-14-12--15-14-12--11b-|
b|----------------------------|
g|----------------------------|
d|----------------------------|
a|----------------------------|
d|----------------------------|


e|-11b-11b-11b-11h12p11-----11h12p11----|
b|----------------------11-----------10-|
g|--------------------------------------|
d|--------------------------------------|
a|--------------------------------------|
d|--------------------------------------|


e|-14--14-17b-14-15--14-15-14-12--15-14-12-|
b|-----------------------------------------|
g|-----------------------------------------|
d|-----------------------------------------|
a|-----------------------------------------|
d|-----------------------------------------|


e|-12b-13--12b-12b-12b-12h13p12-----11h12p11-----|
b|------------------------------11-----------10--|
g|-----------------------------------------------|
d|-----------------------------------------------|
a|-----------------------------------------------|
d|-----------------------------------------------|

Guitar 2:

e|--------------------------------------------------|
b|--------------------------------------------------|
g|--------------------------------------------------|
d|-12---12-10-9-10---10---3-33333-5---5-5-7-8---8-7-|
a|-12---12-10-9-10---10---3-33333-5---5-5-7-8---8-7-|
d|-12---12-10-9-10---10---3-33333-5---5-5-7-8---8-7-| x2

Bridge:

Guitar 2 only:

e|----------------------|
b|----------------------|
g|-5----5-------7-------|
d|-5----5-------7-------|
a|-3----3-------5-------|
d|----------------------| x3

Guitars 1 & 2:

e|----------------------------------------------|
b|----------------------------------------------|
g|----------------------------------------------|
d|-9-9-9-9-9-9-9-997-7-7-7----------------------|
a|-9-9-9-9-9-9-9-997-7-7-7----------------------|
d|-9-9-9-9-9-9-9-997-7-7-7----------------------|

Outro:

Guitars 1 & 2:

e|----------------------------------------------|
b|----------------------------------------------|
g|----------------------------------------------|
d|-9---9---9---9---7-------7--------------------|
a|-9---9---9---9---7-------7--------------------|
d|-9---9---9---9---7-------7--------------------|
Suggest correction
Creating personal tab
Creating personal tab
You can edit any tab online and save it as your Personal.

You can edit, replace or remove any tab part or add personal notes – all changes will be seen only by you.

Personal tabs can be accessed anytime from any device, even offline.
Learn more »
comments
print report bad tab
6 comments total. Showing first comments.
0 reply
hiv-i-hegnet 10 Dec 09, 2009 07:41 AM

Great tab! I LOVE the solo XD its so awesome

+2 reply
Kenny Ketcham 16 Mar 14, 2010 10:01 PM

Hey looks good but caught something you might fix...the bridge that is clean (2:25 in the song) is like this...

e--------
b--------
g--5-4--7
d--5-5--7
a--3-3--5
d-------- x3

0 reply
TheThirdDay 553 Mar 28, 2010 12:37 PM

@ Kenny Ketcham: That is definitely correct. Thank you.

guest
You may want to rate the tab now too:
select rating
Wanna post a correction for this tab? Suggest correction