Oops, an error
Loading. Please wait.

World So Cold Bass Tab

version 1
version 1

Whole song

Interactive

11,497 views 9 this week
3 commentsread comments
1 2 3 4 5
x 5
add to favorites
launch autoscroll
font size
0
reset
guitar tuner
Autoscroll
slow
fast
+/-
esc
set tempo
stop
Help us to improve Ultimate-Guitar.com Take our survey!
×
Author
Tuning
C G C F A D
-------------------------------------------------------------------------------
			     WORLD SO COLD - Three Days Grace
-------------------------------------------------------------------------------

Tabbed By : mariewong

Tuning: Drop C



Intro:

F|-------------------------------------------------------|
C|-------------------------------------------------------|
G|----------------------------------------------1--------|
C|-3-0~-0-00-00-030--3-0~-0-00-00~-03-0~-0-00-00-0-0-1~--|

F|-------------------------------------------------|
C|-------------------------------------------------|
G|--------------------333----------------1--0------|
C|-30-70308070-30-7030-----030-70308070-1--1--13~--|



Verse:
I never thought I'd feel this
Guilty and I'm broken down inside
Livin' with myself
Nothing but lies
I always thought I'd make it
But never knew I'd let it get so bad
Livin' with myself is all I have

F|-------------------------------------------------------|
C|-------------------------------------------------------|
G|----------------------------------------------1--------|  [x2]
C|-3-0~-0-00-00-030--3-0~-0-00-00~-03-0~-0-00-00-0-0-1~--|



Pre-chorus:
I feel numb
I can't come to life
I feel like I'm frozen in time

F|-------------------------------------------------------------------|
C|-------------------------------------------------------------------|
G|-1-1-11-1-1-13101--------------------------------------------------|
C|-------------------0-0-00-0-0-02320--5-5-55-5-5-57535--3-3-3333-3--|



Chorus:
Livin' in a world so cold
Wasting away
Livin' in a shell with no soul
Since you've gone away
Livin' in a world so cold
Counting the days
Since you've gone away
You've gone away

F|-----------------------------------------------------------|
C|-----------------------------------------------------------|
G|-------3-33-3-3-3-3-351-11--013-5-5-5-3-33-3-3-3-3-351-11--|
C|-0-0-0---------------------5-------------------------------|

F|---------------------------------------------------------------|
C|---------------------------------------------------------------|
G|--013-5-5-5-0-00-0-00-3-3-3-3----------1111-3333-1111-3333-----|
C|-5---------------------------0-00-0000---------------------0~--|



Verse:
Do you ever feel me
Do you ever look deep down inside
Staring at yourself
Paralyzed

F|-----------------------------------------------|
C|-----------------------------------------------|
G|--------------------3~----------------1--0-----|
C|-30-70308070-30-7030----030-70308070-1--1--13--|



Pre-chorus:
I feel numb
I can't come to life
I feel like I'm frozen in time
F|-------------------------------------------------------------------|
C|-------------------------------------------------------------------|
G|-1-1-11-1-1-13101--------------------------------------------------|
C|-------------------0-0-00-0-0-02320--5-5-55-5-5-57535--3-3-3333-3--|



Chorus:
Livin' in a world so cold
Wasting away
Livin' in a shell with no soul
Since you've gone away
Livin' in a world so cold
Counting the days
Since you've gone away
You've gone away from me

F|-----------------------------------------------------------|
C|-----------------------------------------------------------|
G|-------3-33-3-3-3-3-351-11--013-5-5-5-3-33-3-3-3-3-351-11--|
C|-0-0-0---------------------5-------------------------------|

F|---------------------------------------------------------------|
C|---------------------------------------------------------------|
G|--013-5-5-5-0-00-0-00-3-3-3-3----------1111-3333-1111-3~--013--|
C|-5---------------------------0-00-0000-------------------5-----|



Bridge:
I'm too young to lose my soul
I'm too young to feel this old
For song long I'm left behind
I feel like I'm losing my mind

F|--------------------------------------------|
C|--------------------------------------------|
G|-555555-10-----------013-555555-10------3~--|
C|----------53-000000-5-------------53-000----|

F|----------------------------------------|
C|----------------------------------------|
G|--013-555555-10----------10---------3~--|
C|-5-------------53-000000---53-330~00----|



Break:
Do you ever feel me
Do you ever look deep down inside
Staring at yourself
Paralyzed



Chorus:
Livin' in a world so cold
Wasting away
Livin' in a shell with no soul
Since you've gone away
Livin' in a world so cold
Counting the days
Since you've gone away
You've gone away from me

F|-----------------------------------------------------------|
C|-----------------------------------------------------------|
G|-------3-33-3-3-3-3-351-11--013-5-5-5-3-33-3-3-3-3-351-11--|
C|-0-0-0---------------------5-------------------------------|

F|------------------------------------------------------------|
C|------------------------------------------------------------|
G|--013-5-5-5-0-00-0-00-3-3-3-3----------1111-3333-1111-3333--|
C|-5---------------------------0-00-0000----------------------|



Outro:
I'm too young
I'm too young

F|--------------------------------------------------|
C|--------------------------------------------------|
G|--------------------333---------------------3335--|
C|-30-70308070-30-7030----030-70308070-30-7030------|





| /  slide up
| \  slide down
| h  hammer-on
| p  pull-off
| ~  vibrato
| +  harmonic
| x  Mute note
===============================================================================
Suggest correction
comments
print report bad tab
3 comments total.
0 reply
MusicMan24 1,114 Sep 26, 2009 08:03 PM

This is probably played on a 5-string

0 reply
TheThirdDay 553 Mar 03, 2010 05:59 PM

I've never once seen brad use a 5 string. Not saying you're wrong, but my guess would be it's just in drop-c.

0 reply
petey1993 52 Aug 02, 2010 09:08 PM

all of the songs they play that are in drop c tuning are played on a 5-string in drop b standard(standard tuning for a 5-string)

guest
You may want to rate the tab now too:
select rating
Wanna post a correction for this tab? Suggest correction