Oops, an error
Loading. Please wait.

World So Cold tab

version 1
version 1

Whole song

Interactive

93,908 views 51 this week
5 commentsread comments
1 2 3 4 5
x 23
add to favorites
×
Save as Personal and add changes to this tab that will be seen only by you. Learn more ›
×
You can save this tab as Personal to edit and correct it or add notes. All changes will be seen only by you. Learn more »
launch autoscroll
font size
0
reset
how to read this tab
guitar tuner
edit
Autoscroll
slow
fast
+/-
esc
set tempo
stop
Three Days Grace
World So Cold
Tabbed by U B the band
Tuning C G C F A D

Legend
b-bend           v-vibrato           pm-palm mute           /-slide up

Intro: Guitar 1 (Clean with Phase Shifter)
D|--------------------------------------------------------------------|
A|--------------------------------------------------------------------|
F|--------------2--------3---2-----------------2-----------5----------|
C|-----------------0--3---------------------------0--3--0-------------|
G|--------------------------------------------------------------------|
C|--3b-v----0----------------------3b-v----0--------------------------|

Intro: Guitar 1 (Clean with Phase Shifter)
D|--------------------------------------------------------------------|
A|--------------------------------------------------------------------|
F|----------------2--------3---2------------3------2------------------|
C|-------------------0--3---------------------------------3-----------|
G|--------------------------------------------------------------------|
C|--0h3b-v----0----------------------1--------------------------------|

Intro: Guitars 1 & 2 (Distorted)
D|--------------------------------------------------------------------|
A|--------------------------------------------------------------------|
F|---------------------------------------------------------5-5-5/7----|
C|----------0---7--0--3--8-0-7-0-----------0---7--0--3--0--5-5-5/7----|
G|----------0---7--0--3--8-0-7-0-----------0---7--0--3--0--3-3-3/5----|
C|--3b-v----0---7--0--3--8-0-7-0---3b-v----0---7--0--3--0-------------|

Intro: Guitar 1 (Distorted)      Guitar 1
D|------------------------------|-------------------------------------|
A|------------------------------|-------------------------------------|
F|------------------------------|---------3------2--------------------|
C|----------0---7--0--3--8-0-7--|-----------------------3-------------|
G|----------0---7--0--3--8-0-7--|-------------------------------------|
C|--3b-v----0---7--0--3--8-0-7--|--1----------------------------------|
                                                                      |
Intro: Guitar 2 (Distorted)      Guitar 2                             |
D|------------------------------|-------------------------------------|
A|------------------------------|-------------------------------------|
F|------------------------------|-------------------------------------|
C|----------0---7--0--3--8-0-7--|--1----------------------------------|
G|----------0---7--0--3--8-0-7--|--1----------------------------------|
C|--3b-v----0---7--0--3--8-0-7--|--1----------------------------------|
                                   pm

Verse 1: Guitar 1 (Clean with Phase Shifter) PLAY VERSE 2 TIMES
D|--------------------------------------------------------------------|
A|--------------------------------------------------------------------|
F|--------------2--------3---2-----------------2-----------5----------|
C|-----------------0--3---------------------------0--3--0-------------|
G|--------------------------------------------------------------------|
C|--3b-v----0----------------------3b-v----0--------------------------|

Verse 1: Guitar 1
D|--------------------------------------------------------------------|
A|--------------------------------------------------------------------|
F|----------------2--------3---2------------3------2------------------|
C|-------------------0--3---------------------------------3-----------|
G|--------------------------------------------------------------------|
C|--0h3b-v----0----------------------1--------------------------------|

Pre Chorus: Guitar 1 (Clean with Phase Shifter)
D|--------------------------------------------------------------------|
A|--------------------------------------------------------------------|
F|-----------------1010-9-9-9------1010-9-9-9-------------------------|
C|-------------8---8-8--8-8-8--0---0-0--0-0-0--5---5-5-5-5--8-8-8-8-8-|
G|-------------8---8-8--8-8-8--0---0-0--0-0-0--5---5-5-5-5--8-8-8-8-8-|
C|-------------8---8-8--8-8-8--0---0-0--0-0-0--5---5-5-5-5--8-8-8-8-8-|
                                                                      |
Pre Chorus: Guitar 2 (Distorted)                                      |
D|--------------------------------------------------------------------|
A|--10-11-10---10-10-8--8-10--10-10-8--8-10--10-10-8--8-10-10---------|
F|--------------------------------------------------------------------|
C|--------------------------------------------------------------------|
G|--------------------------------------------------------------------|
C|--------------------------------------------------------------------|

Chorus: Guitars 1 & 2 (Distorted)
D|--------------------------------------------------------------------|
A|--------------------------------------------------------------------|
F|--------------------------------------------------------------------|
C|--0--0-10----10----8--------------0--0-10----10----8----------------|
G|--0--0-10----10----8--------------0--0-10----10----8----------------|
C|--0--0-10----10----8---5-7-8-10---0--0-10----10----8---5-7-8-10-----|

Chorus: Guitars 1 (Distorted)
D|----------------------|---------------------------------------------|
A|----------------------|---------------------------------------------|
F|----------------------|---------------------------------------------|
C|--0--0-7----10-10-x-5-|--3-3-3-3--5-5-5-5--3-3-3-3--5-5-5-5--0------|
G|--0--0-7----10-10-x-5-|--1-1-1-1--3-3-3-3--1-1-1-1--3-3-3-3--0------|
C|--0--0-7----10-10-x-5-|--------------------------------------0------|
                                                                      |
Chorus: Guitars 2 (Distorted)                                         |
D|----------------------|--------5-6-5-3-5-3-----5-6-5-3-5-3----------|
A|----------------------|--6-----------------6-3---------------6------|
F|----------------------|---------------------------------------------|
C|--0--0-7----10-10-x-5-|---------------------------------------------|
G|--0--0-7----10-10-x-5-|---------------------------------------------|
C|--0--0-7----10-10-x-5-|---------------------------------------------|

Verse 2: Guitar 1 (Clean with Phase Shifter)
D|--------------------------------------------------------------------|
A|--------------------------------------------------------------------|
F|--------------2--------3---2-----------------2-----------5----------|
C|-----------------0--3---------------------------0--3--0-------------|
G|--------------------------------------------------------------------|
C|--3b-v----0----------------------3b-v----0--------------------------|

Verse 2: Guitar 1
D|--------------------------------------------------------------------|
A|--------------------------------------------------------------------|
F|----------------2--------3---2------------3------2------------------|
C|-------------------0--3---------------------------------3-----------|
G|--------------------------------------------------------------------|
C|--0h3b-v----0----------------------1--------------------------------|

Pre Chorus: Guitar 1 (Clean with Phase Shifter)
D|--------------------------------------------------------------------|
A|--------------------------------------------------------------------|
F|-----------------1010-9-9-9------1010-9-9-9-------------------------|
C|-------------8---8-8--8-8-8--0---0-0--0-0-0--5---5-5-5-5--8-8-8-8-8-|
G|-------------8---8-8--8-8-8--0---0-0--0-0-0--5---5-5-5-5--8-8-8-8-8-|
C|-------------8---8-8--8-8-8--0---0-0--0-0-0--5---5-5-5-5--8-8-8-8-8-|
                                                                      |
Pre Chorus: Guitar 2 (Distorted)                                      |
D|--------------------------------------------------------------------|
A|--10-11-10---10-10-8--8-10--10-10-8--8-10--10-10-8--8-10-10---------|
F|--------------------------------------------------------------------|
C|--------------------------------------------------------------------|
G|--------------------------------------------------------------------|
C|--------------------------------------------------------------------|

Chorus: Guitars 1 & 2 (Distorted)
D|--------------------------------------------------------------------|
A|--------------------------------------------------------------------|
F|--------------------------------------------------------------------|
C|--0--0-10----10----8--------------0--0-10----10----8----------------|
G|--0--0-10----10----8--------------0--0-10----10----8----------------|
C|--0--0-10----10----8---5-7-8-10---0--0-10----10----8---5-7-8-10-----|

Chorus: Guitars 1 (Distorted)
D|----------------------|---------------------------------------------|
A|----------------------|---------------------------------------------|
F|----------------------|---------------------------------------------|
C|--0--0-7----10-10-x-5-|--3-3-3-3--5-5-5-5--3-3-3-3--5-5-------------|
G|--0--0-7----10-10-x-5-|--1-1-1-1--3-3-3-3--1-1-1-1--3-3-------------|
C|--0--0-7----10-10-x-5-|----------------------------------5-7-8-10---|
                                                                      |
Chorus: Guitars 2 (Distorted)                                         |
D|----------------------|--------5-6-5-3-5-3--------------------------|
A|----------------------|--6-----------------6-3----------------------|
F|----------------------|---------------------------------------------|
C|--0--0-7----10-10-x-5-|---------------------------------------------|
G|--0--0-7----10-10-x-5-|---------------------------------------------|
C|--0--0-7----10-10-x-5-|---------------------------------------------|

Bridge: Guitars 1 & 2 (Distorted)
D|--------------------------------------------------------------------|
A|--------------------------------------------------------------------|
F|--------------------------------------------------------------------|
C|--------------------------------------------------------------------|
G|--------------------------------------------------------------------|
C|--5---5---5---5---5---5--8-7-5-3--0---0---0---0---0---0--5-7-8-10---|

Bridge: Guitars 1 & 2 (Distorted)
D|--------------------------------------------------------------------|
A|--------------------------------------------------------------------|
F|--------------------------------------------------------------------|
C|--------------------------------------------------------------------|
G|--------------------------------------------------------------------|
C|--5---5---5---5---5---5--8-7-5-3--0---0---0---10---------5-7-8-10---|

Bridge: Guitars 1 & 2 (Distorted)
D|--------------------------------------------------------------------|
A|--------------------------------------------------------------------|
F|--------------------------------------------------------------------|
C|--8---8---x-----0--------x--x--10-----------------------------------|
G|--8---8---x-----0--------x--x--10-----------------------------------|
C|--8---8---x-----0--------x--x--10-----------------------------------|

Chorus: Guitars 1 & 2 (Distorted)
D|--------------------------------------------------------------------|
A|--------------------------------------------------------------------|
F|--------------------------------------------------------------------|
C|--0--0-10----10----8--------------0--0-10----10----8----------------|
G|--0--0-10----10----8--------------0--0-10----10----8----------------|
C|--0--0-10----10----8---5-7-8-10---0--0-10----10----8---5-7-8-10-----|

Chorus: Guitars 1 (Distorted)
D|----------------------|---------------------------------------------|
A|----------------------|---------------------------------------------|
F|----------------------|---------------------------------------------|
C|--0--0-7----10-10-x-5-|--3-3-3-3--5-5-5-5--3-3-3-3--5-5-5-5---------|
G|--0--0-7----10-10-x-5-|--1-1-1-1--3-3-3-3--1-1-1-1--3-3-3-3---------|
C|--0--0-7----10-10-x-5-|---------------------------------------------|
                                                                      |
Chorus: Guitars 2 (Distorted)                                         |
D|----------------------|--------5-6-5-3-5-3-----5-6-5-3-5-3----------|
A|----------------------|--6-----------------6-3-------------6--------|
F|----------------------|---------------------------------------------|
C|--0----7----10-10-x-5-|---------------------------------------------|
G|--0----7----10-10-x-5-|---------------------------------------------|
C|--0----7----10-10-x-5-|---------------------------------------------|

Outro: Guitars 1 & 2 (Distorted) PLAY OUTRO 2 TIMES
D|--------------------------------------------------------------------|
A|--------------------------------------------------------------------|
F|---------------------------------------------------------5-5-5/7----|
C|----------0---7--0--3--8-0-7-0-----------0---7--0--3--0--5-5-5/7----|
G|----------0---7--0--3--8-0-7-0-----------0---7--0--3--0--3-3-3/5----|
C|--3b-v----0---7--0--3--8-0-7-0---3b-v----0---7--0--3--0-------------|

Finished

            
            
Suggest correction
Creating personal tab
Creating personal tab
You can edit any tab online and save it as your Personal.

You can edit, replace or remove any tab part or add personal notes – all changes will be seen only by you.

Personal tabs can be accessed anytime from any device, even offline.
Learn more »
comments
print report bad tab
5 comments total. Showing first comments.
+1 reply
hiv-i-hegnet 10 Sep 22, 2009 10:32 AM

great tab! and posted very fast

+2 reply
willzy17 10 Sep 23, 2009 02:57 PM

insanely accurate dude. thumbs up

+1 reply
xKnifekillerx 393 Nov 13, 2009 08:17 AM

Dude, when i first heard this i thought it may of been Drop b :O

but awesome.

guest
You may want to rate the tab now too:
select rating
Wanna post a correction for this tab? Suggest correction