Oops, an error
Loading. Please wait.

Joy To The World Bass Tab

version 2
version 2

Whole song

Interactive

3,082 views 1 this week
no commentswrite comment
1 2 3 4 5
2 more votes to show rating
add to favorites
launch autoscroll
font size
0
reset
guitar tuner
Autoscroll
slow
fast
+/-
esc
set tempo
stop
Help us to improve Ultimate-Guitar.com Take our survey!
×
Finger Bass
     W                   H        Q    Q     
G||-------------------|--7--------5---------|
D||-------------------|---------------------|
A||-------------------|---------------------|
E||-------------------|---------------------|


  E  E  E  H        E   
--------2--3--------L--|
-----5-----------------|
-----------------------|
-----------------------|


  H        E  Q    E     W                 
-----------5--6----7--|-------------------|
--3-------------------|-------------------|
----------------------|-------------------|
----------------------|-------------------|


  H        E  Q    E     W                 
-----------5--6----7--|-------------------|
----------------------|-------------------|
----------------------|-------------------|
----------------------|-------------------|


  H        E  Q    E     H         H         
-----------5--6----7--|--L--------14--------|
----------------------|---------------------|
----------------------|-----------15--------|
----------------------|---------------------|


   Q.      H        E   
--12-------------------|
-----------------------|
--14------13--------L--|
-----------------------|


   E   Q.      Q     E   E   
----------------------------|
--12--12------------11--12--|
--------------12------------|
----------------------------|


  E   H        E   Q     
------------------------|
--L--12--------L--------|
------------------12----|
------------------------|


   Q.      E  E  Q.      
------------------------|
--------------7--7------|
--10------10------------|
------------------------|


  Q.     E  E  E  E  E   
--7------7--------4--2--|
------------7--7--------|
------------------------|
------------------------|


  E  E  Q.     E  E  E   
--7-----7---------6-----|
-----7---------7-----7--|
------------------------|
------------------------|


  H        Q    Q     
--7--------0---------|
----------------6----|
---------------------|
---------------------|


  Q    Q.     E  E  E   
-----------------5--6--|
--7----7------7--------|
-----------------------|
-----------------------|


  H        E  E  E  E   
--7--------L-----6-----|
--------------7-----7--|
-----------------------|
-----------------------|


  H         H         
--7--------14--------|
---------------------|
-----------15--------|
---------------------|


   Q.      Q     E   Q     
--12------------12--12----|
--------------------------|
--14------13--------------|
--------------------------|


   H         E   Q     E   
--11--------12--12----11--|
--12------------11----12--|
------------12------------|
--------------------------|


  H         E   Q     E   
--L----------------------|
--L--------10--11----12--|
-------------------------|
-------------------------|


  W                   H        E  Q    E   
-------------------|-----------5--6----7--|
-------------------|----------------------|
-------------------|----------------------|
-------------------|----------------------|


  W                   H        E  Q    E   
-------------------|-----------5--6----7--|
-------------------|----------------------|
-------------------|----------------------|
-------------------|----------------------|


  H         H         
--L--------14--------|
---------------------|
-----------15--------|
---------------------|


   Q.      H        E   
--12-------------------|
-----------------------|
--14------13--------L--|
-----------------------|


   E   Q.      Q     E   E   
----------------------------|
--12--12------------11--12--|
--------------12------------|
----------------------------|


  E   H        E   Q     
------------------------|
--L--12--------L--------|
------------------12----|
------------------------|


   Q.      E  E  Q.      
------------------------|
--------------7--7------|
--10------10------------|
------------------------|


  Q.     E  E  E  E  E   
--7------7--------4--2--|
------------7--7--------|
------------------------|
------------------------|


  E  E  Q.     E  E  E   
--7-----7---------6-----|
-----7---------7-----7--|
------------------------|
------------------------|


  H        Q    Q     
--7--------0---------|
----------------6----|
---------------------|
---------------------|


  Q    Q.     E  E  E   
-----------------5--6--|
--7----7------7--------|
-----------------------|
-----------------------|


  H        E  E  E  E   
--7--------L-----6-----|
--------------7-----7--|
-----------------------|
-----------------------|


  H         H         
--7--------14--------|
---------------------|
-----------15--------|
---------------------|


   Q.      Q     E   Q     
--12------------12--12----|
--------------------------|
--14------13--------------|
--------------------------|


   H         E   Q     E   
--11--------12--12----11--|
--12------------11----12--|
------------12------------|
--------------------------|


  H         E   Q.      
--L--------------------|
--L--------------------|
-----------12--12------|
-----------------------|


   H         E  E  E  E   
-------------------------|
--12--------12--9--8--7--|
-------------------------|
-------------------------|


  Q.     E  Q.     E     H        E  Q.      
--7------7--7---------|--------------6------|
-------------------7--|--L--------7---------|
----------------------|---------------------|
----------------------|---------------------|


  H        Q    Q     
--7--------7----7----|
---------------------|
---------------------|
---------------------|


  E  Q     E   Q     E   E   
--7--7----16--17------------|
----------------------------|
--------------------17--17--|
----------------------------|


   Q.      Q     E   Q     
--16------19--------------|
--17------20--------------|
--------------------------|
----------------18--18----|


   Q     E   E   E   E   E   E   
------------14--16--14----------|
--------16--------------15--12--|
--------------------------------|
--17----------------------------|


  H         E   Q     E   
-------------------------|
--L--------10--11----12--|
-------------------------|
-------------------------|


  W                   H        E  Q    E   
-------------------|-----------5--6----7--|
-------------------|----------------------|
-------------------|----------------------|
-------------------|----------------------|


  W                   H        E  Q    E   
-------------------|-----------5--6----7--|
-------------------|----------------------|
-------------------|----------------------|
-------------------|----------------------|


  H         H         
--L--------14--------|
---------------------|
-----------15--------|
---------------------|


   Q.      H        E   
--12-------------------|
-----------------------|
--14------13--------L--|
-----------------------|


   E   Q.      Q     E   E   
----------------------------|
--12--12------------11--12--|
--------------12------------|
----------------------------|


  E   H        E   Q     
------------------------|
--L--12--------L--------|
------------------12----|
------------------------|


   Q.      E   E   Q.      
--------------12----------|
--------------------------|
--10------10--12--12------|
--------------------------|


   Q.      E   E   E  E  E   
--11------------------------|
--12------12----------9--7--|
--------------12--12--------|
----------------------------|


  E  E  Q.     E  E  E   
--7-----7---------6-----|
-----7---------7-----7--|
------------------------|
------------------------|


  H        Q    Q     
--7--------0---------|
----------------6----|
---------------------|
---------------------|


  Q    Q.     E  E  E   
-----------------5--6--|
--7----7------7--------|
-----------------------|
-----------------------|


  H        E  E  E  E   
--7--------L-----6-----|
--------------7-----7--|
-----------------------|
-----------------------|


  H         H         
--7--------14--------|
---------------------|
-----------15--------|
---------------------|


   Q.      Q     E   Q     
--12------------12--12----|
--------------------------|
--14------13--------------|
--------------------------|


   H         E   Q     E   
--11--------12--12----11--|
--12------------11----12--|
------------12------------|
--------------------------|


  Q.      Q     E   E   E   
--L------------------------|
--L----------------12--13--|
---------12----12----------|
---------------------------|


   Q     H        E   E   
-------------------------|
--14----14--------L------|
---------------------11--|
-------------------------|


   H         E   E   E   E   
----------------------------|
------------11--12--13--14--|
--12------------------------|
----------------------------|


   Q     H        E   E   
-------------------------|
-------------------------|
---------------------11--|
--12----12--------L------|


   H         E   E   E   E   
----------------------------|
------------11--12--13--14--|
--12------------------------|
----------------------------|


   Q     H        E   E   
-------------------------|
-------------------------|
---------------------11--|
--12----12--------L------|


   H         E   E   E   E   
----------------------------|
------------11--12--13--14--|
--12------------------------|
----------------------------|


   Q     H        E   E   
-------------------------|
-------------------------|
---------------------11--|
--12----12--------L------|


   E   E   Q     Q     E   E   
------------------------------|
--------------------------11--|
--12------12----12----12------|
------12----------------------|


   E   E   Q.      E   E   E   
------------------------------|
--12------12----------11------|
------12----------12------12--|
------------------------------|


   H        E   E   E   E   
---------------------------|
--12--------L--------------|
---------------11--12------|
-----------------------10--|


   E   E   Q     Q.      E   
----------------------------|
------------------------11--|
--12------12----12----------|
------12--------------------|


   E   E   Q     Q     E   E   
------------------------------|
--12------12----------11------|
------12--------12--------12--|
------------------------------|


   H         H         
----------------------|
--12--------10--------|
----------------------|
----------------------|


   Q.      Q.      Q     
--12--------------------|
------------------------|
--14------13------13----|
------------------------|


   Q     Q     E   Q     E   
--------11------------------|
--------------11--11----12--|
--12------------------------|
----------------------------|


  E  E   E   E   E   E   E   E   
--------------------------------|
--L-------------------------11--|
-----9--10--11--12--13--14------|
--------------------------------|


   E   E   Q.      E   E   E   
------------------------------|
--12------12----------11------|
------12----------12------12--|
------------------------------|


   H        E   E   E   E   
---------------------------|
--12--------L--------------|
---------------11--12------|
-----------------------10--|


   E   E   Q     Q.      E   
----------------------------|
------------------------11--|
--12------12----12----------|
------12--------------------|


   E   E   Q     Q     E   E   
------------------------------|
--12------12----------11------|
------12--------12--------12--|
------------------------------|


   H         H         
----------------------|
--12--------10--------|
----------------------|
----------------------|


   Q.      Q.      Q     
--12--------------------|
------------------------|
--14------13------13----|
------------------------|


   Q     Q     E   Q     E   
--------11------------------|
--------------11--11----12--|
--12------------------------|
----------------------------|


  E  E   E   E   E   E   E   E    
--------------------------------||
--L-------------------------11--||
-----9--10--11--12--13--14------||
--------------------------------||




Duration Legend
---------------
W - whole
H - half
Q - quarter
E - 8th
S - 16th
T - 32nd
X - 64th
. - note dotted
|-n-|  - n-tuplets


Tablature Legend
----------------
L - tied note
x - dead note
g - grace note
(n) - ghost note
> - accentuded note
NH - natural harmonic
AH - artificial harmonic
TH - tapped harmonic
SH - semi harmonic
PH - pitch harmonic
h - hammer on
p - pull off
b - bend
br - bendRelease
pb - preBend
pbr - preBendRelease
brb - bendReleaseBend
\n/ - tremolo bar dip
\n - tremolo bar dive
-/n - tremolo bar Release up
/n\ - tremolo bar inverted dip
/n - tremolo bar return
-\n - tremolo bar Release down
S - shift slide
s - legato slide
/ -  slide into from below or out of upwards
\ -  slide into from above or out of downwards
~ - vibrato
W - wide vibrato
tr - trill
TP - tremolo picking
T - tapping
S - slap
P - pop
< - fade in
^ - brush up
v - brush down
Suggest correction
Give kudos to tab author, rate the tab!
1 2 3 4 5
comments
print report bad tab
guest
You may want to rate the tab now too:
select rating
Wanna post a correction for this tab? Suggest correction