Oops, an error
Loading. Please wait.

Mama Told Me Not To Come bass

version 3
version 3

Whole song

Interactive

481 views 3 this week
no commentswrite comment
1 2 3 4 5
1 last vote to show rating
add to favorites
×
Save as Personal and add changes to this tab that will be seen only by you. Learn more ›
×
You can save this tab as Personal to edit and correct it or add notes. All changes will be seen only by you. Learn more »
launch autoscroll
font size
0
reset
guitar tuner
backing track
0:00
0:00
edit
Autoscroll
slow
fast
+/-
esc
set tempo
stop
Author
Difficulty
-------------------------------------------------------------------------------
                             Mama Told Me Not To Come - Three Dog Night
-------------------------------------------------------------------------------
Tabbed by: CorporalCrunch
Tuning: Standard


Intro:
G|-------------------|
D|-------------------|
A|---5-6-----5-6-----|
E|-4-----3-4-----3-4-|


Verse 1:"Want some whiskey in your water?..."
G|-------------------------------------------------------------------|
D|-------------------------------------------------------------------|
A|5-6-----5-6-----5-6-----5-6-----5-6-----5-6-----5-6----------------|
E|----3-4-----3-4-----3-4-----3-4-----3-4-----3-4-----3-4---0-1-2-3--|


Chorus: "Mama Told Me Not To Come"
G|---------------------------------------------------------------------------|
D|--------------------4-6---------------------4-6---------------------4-h6---|
A|-------3-3--4--6--6------------3-3--4--6--6------------3-3--4--6--6--------|
E|4-4--4------------------4-4--4------------------4-4--4-------------------4-|


Verse 2:"Open up the window..."
G|-----------------------------------------------------------------------|
D|-----------------------------------------------------------------------|
A|--5-6-----5-6-----5-6-----5-6-----5-6-----5-6-----5-6-----5-6----------|
E|4-----3-4-----3-4-----3-4-----3-4-----3-4-----3-4-----3-4-----0-1-2-3--|


Chorus: "Mama Told Me Not To Come"
G|---------------------------------------------------------------------------|
D|--------------------4-6---------------------4-6---------------------4-h6---|
A|-------3-3--4--6--6------------3-3--4--6--6------------3-3--4--6--6--------|
E|4--4-4------------------4--4-4------------------4--4-4-------------------4-|


Guitar Solo:
G|-------------------------------------------------------------|
D|---------------4-6----------------4-6-----------------4-h6---|
A|--3-3--4--6--6-------3-3--4--6--6--------3-3--4--6--6--------|
E|4------------------4-------------------4-------------------4-|


Verse 3: "The radio is blastin'..."
G|-----------------------------------------------------------------------|
D|-----------------------------------------------------------------------|
A|--5-6-----5-6-----5-6-----5-6-----5-6-----5-6-----5-6-----5-6----------|
E|4-----3-4-----3-4-----3-4-----3-4-----3-4-----3-4-----3-4-----0-1-2-3--|


Chorus: "Mama Told Me Not To Come"
G|-------------------------------------------------------------|
D|---------------4-6----------------4-6-----------------4-h6---|
A|--3-3--4--6--6-------3-3--4--6--6--------3-3--4--6--6--------|
E|4------------------4-------------------4-------------------4-|


Ending Choruses: 
G|------------------------------------------------------------------------------|
D|---------------4-6----------------4-6-----------------4-6----------------4-6--|
A|--3-3--4--6--6-------3-3--4--6--6--------3-3--4--6--6-------3-3--4--6--6------|
E|4------------------4-------------------4------------------4-------------------|

"That Ain't the way to have fun..."
G|-----------------------------------------------------------------------|
D|-----------------------------------------------------------------------|
A|--1-2-3-4-----------1-2-3-4----------1-2-3-4-----------1-2-3-4---------|
E|4---------2--2-3-4----------0-2-3-4----------2--2-3-4----------0-2-3-4-|

                                         
G|--------------------------------------|
D|---------------4-6----------------4-6-|
A|--3-3--4--6--6-------3-3--4--6--6-----|
E|4------------------4------------------|

"That Ain't the way to have fun..."
G|-----------------------------------------------------------------------|---------------------|
D|-----------------------------------------------------------------------|---------------4-6---|
A|--1-2-3-4-----------1-2-3-4----------1-2-3-4-----------1-2-3-4---------|--3-3--4--6--6-------|
E|4---------2--2-3-4----------0-2-3-4----------2--2-3-4----------0-2-3-4-|4------------------4-|


Outro:
G|------------------|
D|------------------|
A|-7-5-4---4-1-2-3--|
E|-------7----------|


| h  hammer-on

===============================================================================

            
            
Suggest correction
Creating personal tab
Creating personal tab
You can edit any tab online and save it as your Personal.

You can edit, replace or remove any tab part or add personal notes – all changes will be seen only by you.

Personal tabs can be accessed anytime from any device, even offline.
Learn more »
Give kudos to tab author, rate the tab!
1 2 3 4 5
comments
print report bad tab
guest
You may want to rate the tab now too:
select rating
Wanna post a correction for this tab? Suggest correction