Oops, an error
Loading. Please wait.

Old Fashioned Love Song Bass Tab

1,908 views 3 this week
no commentswrite comment
1 2 3 4 5
please rate
add to favorites
launch autoscroll
font size
0
reset
guitar tuner
Autoscroll
slow
fast
+/-
esc
set tempo
stop
Help us to improve Ultimate-Guitar.com Take our survey!
×
Author
Difficulty
intermediate
[INTRO] (Softly...)
G:0-------|--------|0-------|--------|
D:----3---|1---0---|----3---|1---0---|
A:--------|--------|--------|--------|
E:--------|--------|--------|--------|

[VERSE]
  Gm      Bb            Eb        D               Gm    Bb    Eb   D
  Just an Old Fashioned Love song playing on the radio.
      Gm                 Bb           Eb               D
  And wrapped around the music is the sound of someone promising
          Gm      Bb    Eb   D
  They'll never go

  Gm  Bb   Eb  D    Gm  Bb   Eb  D    Gm  Bb   Eb   D    Gm  Bb   Eb  D    
                                                3
                                               ~~~
G:--------|--------|--------|--------|--------|--00-----|--------|--------|
D:----3---|1---0--0|----3--3|1--10--0|--------|-0--40---|----3---|1---0---|
A:--------|--------|--------|--------|--------|---------|--------|--------|
E:3-------|--------|3-------|--------|3---1---|3--------|3-------|--------|

  G                   G/F                   Eb             D
  You'll swear you've heard it before as it slowly rambles on
  Gm         Bb                               Eb            D
  No need in bringing 'em back 'cause they're never really gone

  G   G/F  Eb  D    G   Bb  Eb  D    
G:0-------|--------|0-------|--------|
D:----3---|1---0---|----3---|1---0---|
A:--------|--------|--------|--------|
E:--------|--------|--------|--------|

[CHORUS]
  Bb                    C
  Just an old fashioned love song
  Eb                F                 Bb     Eb
  One I'm sure they wrote for you and me 
  Bb                    C
  Just an old fashioned love song
  Eb             F                    Gm
  Coming down in three part harmony

  Bb       C        Eb  F    Bb       Bb       C        Eb  F  
G:--------|--------|--------|--------|--------|--------|--------|
D:--------|-------0|1---3---|--------|--------|-------0|1---3---|
A:1---1--1|3---3-3-|--1---3-|1-----13|1---1--1|3---3-3-|--1---3-|
E:--1---1-|--3--3--|--------|-3-1-3--|--1---1-|--3--3--|--------|

[VERSE]
Gm           Bb              Eb             D                Gm       Bb    Eb D
To weave our dreams upon and listen to each evening when the lights are low
Gm                Bb               Eb             D                  Gm     Bb Eb D
To underscore our love affair with tenderness and feeling that we've come to know

  Gm  Bb   Eb  D    Gm  Bb   Eb  D    Gm  Bb   Eb  D    Gm  Bb   Eb  D    
G:0-------|--------|0-------|--------|0-------|--------|0-------|--------|
D:----3---|1---0---|----3---|1---0---|----3---|1---0---|----3---|1---0---|
A:--------|--------|--------|--------|--------|--------|--------|--------|
E:--------|--------|--------|--------|--------|--------|--------|--------|

  G                   G/F                   Eb             D
  You'll swear you've heard it before as it slowly rambles on and on
  Gm           Bb                               Eb           D
    No need in bringing 'em back 'cause they're never really gone

  G   G/F  Eb  D    G   Bb   Eb  D    
G:0-------|--------|0-------|--------|
D:----3---|1---0---|----3---|1---0---|
A:--------|--------|--------|--------|
E:--------|--------|--------|--------|

[CHORUS]
  Bb                    C
  Just an old fashioned love song
  Eb             F               Bb   Eb
  Coming down in three part harmony
  Bb                    C
  Just an old fashioned love song
  Eb                F                 Bb     Eb
  One I'm sure they wrote for you and me 

  Bb       C        Eb  F    Bb       Bb       C        Eb  F  
G:--------|--------|--------|--------|--------|--------|--------|
D:--------|-------0|1---3---|--------|--------|-------0|1---3---|
A:1---1--1|3---3-3-|--1---3-|1-----13|1---1--1|3---3-3-|--1---3-|
E:--1---1-|--3--3--|--------|-3-1-3--|--1---1-|--3--3--|--------|

[CHORUS]
  Bb                    C
  Just an old fashioned love song
  Eb             F               Bb   Eb
  Coming down in three part harmony
  Bb                    C
  Just an old fashioned love song
  Eb                F                 Gm
  One I'm sure they wrote for you and me 

  Bb       C        Eb  F    Bb       Bb       C        Eb  F  
G:--------|--------|--------|--------|--------|--------|--------|
D:--------|-------0|1---3---|--------|--------|-------0|1---3---|
A:1---1--1|3---3-3-|--1---3-|1-----13|1---1--1|3---3-3-|--1---3-|
E:--1---1-|--3--3--|--------|-3-1-3--|--1---1-|--3--3--|--------|

[BRIDGE]
Gm           Bb              Eb            D     D
To weave our dreams upon and listen to the song

  G   Bb   Eb  D    D
G:0-------|--------|--------|
D:----3---|1---0---|0-------|
A:--------|--------|--------|
E:--------|--------|--------|

[CHORUS]
  Bb                    C
  Just an old fashioned love song
 (Just      an          old    song)
  Eb             F               Bb   Eb
  Coming down in three part harmony
  Bb                    C
  Just an old fashioned love song
 (Just      an          old    song)
  Eb                F                 Bb     Eb
  One I'm sure they wrote for you and me

  Bb       C        Eb  F    Bb       Bb       C        Eb  F  
G:--------|--------|--------|--------|--------|--------|--------|
D:--------|-------0|1---3---|--------|--------|-------0|1---3---|
A:1---1--1|3---3-3-|--1---3-|1-----13|1---1--1|3---3-3-|--1---3-|
E:--1---1-|--3--3--|--------|-3-1-3--|--1---1-|--3--3--|--------|

Tabbed by Michael Oxner
moxner@nbnet.nb.ca
Suggest correction
Give kudos to tab author, rate the tab!
1 2 3 4 5
comments
print report bad tab
guest
You may want to rate the tab now too:
select rating
Please do not post tabs as comments. Select "correction" instead!