Oops, an error
Loading. Please wait.

One Bass Tab

version 1
version 1

Whole song

Interactive

5,159 views 9 this week
1 commentread comment
1 2 3 4 5
accurate
x 5
add to favorites
launch autoscroll
font size
0
reset
guitar tuner
Autoscroll
slow
fast
+/-
esc
set tempo
stop
Help us to improve Ultimate-Guitar.com Take our survey!
×
Author
Difficulty
novice
Im guessing that the tuning is standard
My was tuned like this when i played it
but it might happen that you need to 
tune it up or down ;)

Enjoy :D

Intro piano

[00:04]
G|-------------------3|
D|-----------------23-|
A|---------1---4-23---|
E|1---4---------------|

G|-------------------3|
D|-----------------23-|
A|---------1---4-23---|
E|1---4---------------|

G|-------------------3|
D|-----------------23-|
A|---------1---4-23---|
E|1---4---------------|

G|-------------------3|
D|-----------------23-|
A|---------1---4-23---|
E|1---4---------------|

G|-------------------3|
D|-----------------23-|
A|---------1---4-23---|
E|1---4---------------|

G|-------------------3|
D|-----------------23-|
A|---------11114423---|
E|111144444-----------|

G|-------------------3|
D|-----------------23-|
A|---------11114423---|
E|111144444-----------|

G|-------------------3|
D|-----------------23-|
A|---------11114423---|
E|111144444-----------|

G|--------------------|
D|3-35----------------|
A|-3------------------|
E|--------------------|

G|--------------------|
D|----13--------------|
A|--12--24------------|
E|01------------------|

G|--------------------|
D|--------------------|
A|--------------------|
E|1-------111111111111|

G|-------------------3|
D|-----------------23-|
A|---------1-114-23---|
E|1-114--44-----------|

G|-------------------3|
D|-----------------23-|
A|---------1-114-23---|
E|1-114--44-----------|

G|-------------------3|
D|-----------------23-|
A|---------1-114-23---|
E|1-114--44-----------|

G|-------------------3|
D|-----------------23-|
A|---------1-114-23---|
E|1-114--44-----------|

G|--------------------|
D|--------------------|
A|--------------------|
E|1-------------------|

G|--------------------|
D|--------------------|
A|--------------------|
E|1-------------------|

G|-------------------3|
D|-----------------23-|
A|---------1-114-23---|
E|1-114--44-----------|

G|-------------------3|
D|-----------------23-|
A|---------1-114-23---|
E|1-114--44-----------|

G|-------------------3|
D|-----------------23-|
A|---------1-114-23---|
E|1-114--44-----------|

G|-------------------3|
D|-----------------23-|
A|---------1-114-23---|
E|1-114--44-----------|

G|-------------------3|
D|-----------------23-|
A|---------1-114-23---|
E|1-114--44-----------|

G|-------------------3|
D|-----------------23-|
A|---------1-114-23---|
E|1-114--44-----------|

G|-------------------3|
D|-----------------23-|
A|---------1-114-23---|
E|1-114--44-----------|

G|--------------------| The End
D|3-356~--------------| The End
A|-3------------------| The End
E|--------------------| The End


Suggest correction
comments
print report bad tab
1 comment total.
0 reply
Unossofrus 1,331 wrote on October 26 2013, 03:15 pm

4 star. good tab but im not sure about the middle bit (10th tab down), there's definitely something missing or not right. the rest is awesome

guest
You may want to rate the tab now too:
select rating
Wanna post a correction for this tab? Suggest correction