Oops, an error
Loading. Please wait.

One Man Band Tab

2,184 views 9 this week
no commentswrite comment
1 2 3 4 5
please rate
add to favorites
launch autoscroll
font size
0
reset
how to read this tab
guitar tuner
Tab Pro tools
  • play this tab
  • loop segment
  • change instrument
  • show fretboard
  • metronome
Autoscroll
slow
fast
+/-
esc
set tempo
stop
Contributor
One Man Band by Three Dog Night
(standard tuning)

 h   hammer on      /   slide up   
 p   pull off       \   slide down       
 b   bend           *   natural harmonic 
 pb  pre bend       ra  rake             
 r   release bend   x   dead note  


|------------15br---------------15br----|
|--17----15-----------17----15----------|
|---------------------------------------|
|---------------------------------------|
|---------------------------------------|
|---------------------------------------|


|---------------------5----5---------------7--7-------10--10--10--9h10\--|
|------------------6----6------8--8--8--8--------8--8--------------------|
|------------------------------------------------------------------------|
|------------x-x---------------------------------------------------------|
|--5----(5)\-x-x---------------------------------------------------------|
|------------------------------------------------------------------------|
2 times - Let that first note ring for like 3 years


|------------------------------------------|
|------------------------------------------|
|-------------------------------5---5p3p0--|
|------------------------------------------|
|------------------------------------------|
|--3--3----3--3----3--3---0h1h2h3----------|
2 times


|----------------------6b---6--3---3----------------------------------------
|--------------------------------6------------------------------------------
|----0------0-------------------------5----5--7-7br-p5--7b--7--5h7--5h7--0--
|----------------------------------------7----------------------------------
|-------------0h1h2---------------------------------------------------------
|--3------3---------3-------------------------------------------------------


----------------------------------------------------------------------|
----------------------------------------------------------------------|
-------5---5h7-------------------5h7------5------------5----5h7-------|
--5--7---7------7--5h7--5h7--0--------5-7---0-----5--7---7--------0---|
----------------------------------------------------------------------|
----------------------------------------------------------------------|


|---------------------------------------------------------------------------
|----------------------------------------------------7-8--7------10--8------
|-------------------------------------------/7--7-7---------9--7------------
|--0---------5--7\--/7--5\2\------------------------------------------------
|------7--9-------------------1---1-2-3-------------------------------------
|---------------------------------------------------------------------------


---------------------------------------------------------------/10--10/13---
-------9b-9b-9rp7---------7-8--7-------/10--8----9b-9b-9rp7-----------------
--8--8------------8----/7--------9--7----------8------------8---------------
----------------------------------------------------------------------------
----------------------------------------------------------------------------
----------------------------------------------------------------------------
----------------------------------------------------------------------------


--13/15--15--|
-------------|
-------------|
-------------|
-------------|
-------------|
comments
We did not receive enough feedback on this tab! Please rate:
print report bad tab
1 2 3 4 5
I want to post or [tab]
guest
You may want to rate the tab now too:
select rating
Please do not post tabs as comments. Select "correction" instead!