Oops, an error
Loading. Please wait.

Shambala Chords

version 1
version 1

Whole song

Interactive

70,557 views 30 this week
4 commentsread comments
1 2 3 4 5
x 7
add to favorites
launch autoscroll
font size
0
reset
transpose
0
reset
display chords
guitar tuner
Autoscroll
slow
fast
+/-
esc
set tempo
stop
Help us to improve Ultimate-Guitar.com Take our survey!
×
Author
SHAMBALA
Three Dog Night

Tab by:omanyen@fusemail.com

[Intro]

          E                 D             A
e|-------------------|---------------|----------------|
B|--------------0----|---------3-----|----------------|
G|-----------1-----1-|------2-----2--|---------2------|
D|-----0--2----------|---0-----------|---------2------|
A|-0-4---------------|---------------|-----4------0---|
E|-------------------|---------------|----------------|(x4)

[Verse 1]

      E           D           A
Wash away my troubles, wash away my pain
          E      D      A
with the rain in Shambala.
      E         D          A
wash away my sorrow, wash away my shame,
          E      D      A
with the rain in Shambala.

(before this next part, play just the 6th string-G, F#, open E)

           E        D   A 
Ahh - ahh, oooh - oooh, oooh - oooh, yeah.
 E             D             A
yeah - yeah - yeah - yeah - yeah.
           E        D   A 
Ahh - ahh, oooh - oooh, oooh - oooh, yeah.
 E             D             A
yeah - yeah - yeah - yeah - yeah.

[Verse 2]

     E           D        A
Everyone is helpful, everyone is kind,
       E       D      A
on the road to Shambala.
     E          D       A
Everyone is lucky, everyone is so kind,
       E       D      A
on the road to Shambala.


[Chorus]

A                                D        A
How does your light shine in the halls of Shambala?
A                                D        A
How does your light shine in the halls of Shambala?


[Lead]

e|---12--------------------------------------------------------------|
B|---12--------------------------------------------------------------|
G|-------11r^---9---9---------------------------------9--11b--9h11r9-|
D|----------------------11\9-----------------9--9h11-----------------|
A|-----------------------------7---7---9/11--------------------------|
E|-------------------------------------------------------------------|


[Verse 3]
(verses chords progression)

I can tell my sister, by the flowers in her eyes,
on the road to Shambala.
I can tell my brother, by the flowers in his eyes,
on the road to Shambala.

[Chorus]

A                                D        A
How does your light shine in the halls of Shambala?
A                                D        A
How does your light shine in the halls of Shambala?


************************************

| r^  already bent up, release bend   
| \   slide down  
| h   hammer
| b   bend                               
| /   slide up    
| r   rake

************************************
Suggest correction
comments
print report bad tab
4 comments total. Showing first comments.
+3 reply
toonz 10 Aug 10, 2006 12:27 PM

This is a good song for beginners.
There is only one chord that seems wrong.
The chorus should be A D A instead of A D E.
Otherwise sounds good.

0 reply
Mikee99 11 Sep 09, 2015 09:59 PM

this is the correct intro
INTRO:
E D A
----------------------|---------0-----|----------------|
-----------------0----|------------3--|----------------|
--------------1-----1-|------2--------|-----2----------|
--------0--2----------|---0-----------|-----2----------|
--0--4----------------|---------------|--4------0------|
----------------------|---------------|----------------|

0 reply
Mikee99 11 Sep 09, 2015 10:19 PM

THE CHORUS IS A - D - A

guest
You may want to rate the tab now too:
select rating
Wanna post a correction for this tab? Suggest correction