Oops, an error
Loading. Please wait.

Shoebox Memories Bass Tab

156 views 1 this week
no commentswrite comment
1 2 3 4 5
3 more votes to show rating
add to favorites
launch autoscroll
font size
0
reset
guitar tuner
Autoscroll
slow
fast
+/-
esc
set tempo
stop
Help us to improve Ultimate-Guitar.com Take our survey!
×
Shoebox Memories
Three Nails Short
When the lines move
Tabbed by Taylor Smith
Standard 5 string tuning
(BEADG)
This is a really slow song, but it has a pretty neat bass part. you need to listen close.

www.threenailsshort.com

  
G|------------------------------------|
D|-----------------------------9--11\-|
A|-----------------------7-77---9-----|
E|-0---0-4-2-0-2---0-2h4---------9----|
B|---0-----------0--------------------|


G|-----------------------------------------------------------------------------|
D|-----------------------------------------------------------------------------|
A|-----------------------------------------------------------------------------|
E|-44444444-00000000-44444444-22222222\0-4-2h4-0-4-2h4-0-4-2h4-0-000-2---0-2---|
B|---------------------------------------------------------------------0-----0-|


G|------------------------------------------------------------------------|
D|------------------------------------------------------------------------|
A|------------------------------------2/7-9-11\---------------------------|
E|-0h2/7--0-2---2--0-4-2h4-0--2---2-0-----------0-2---2-0-4-2h4-0-2---2-0-|
B|------------0-----------------0-------------------0---------------0-----|


G|-----------------------------------------------------------------------------|
D|-----------------------------------------------------------------------------|
A|-----------------------------------------------------------------------------|
E|-44444444-00000000-44444444-22222222\0-4-2h4-0-4-2h4-0-4-2h4-4-2h4-0-4-2h4-0-|
B|-----------------------------------------------------------------------------|


G|--------------------9---------------------------------------------------------------|
D|-----------------/9-----------------------------------------------------------------|
A|------------------------------------------------------------------------------------|
E|-4-2h4-0-4-2h4-0------4-2h4-0--4-2h4-0--4-2h4-0--4-2h4-0--4-2h4-0--4-2h4-0--4-2h4-0-|
B|------------------------------------------------------------------------------------|


G|-----------|
D|-----------|
A|-----------|
E|-4-2h4-0~~-|
B|-----------|
Suggest correction
Give kudos to tab author, rate the tab!
1 2 3 4 5
comments
print report bad tab
guest
You may want to rate the tab now too:
select rating
Wanna post a correction for this tab? Suggest correction