Oops, an error
Loading. Please wait.

Honey Baby Tab

version 1
version 1
11,979 views 3 this week
1 commentread comment
1 2 3 4 5
1 last vote to show rating
add to favorites
launch autoscroll
font size
0
reset
how to read this tab
guitar tuner
Autoscroll
slow
fast
+/-
esc
set tempo
stop
Help us to improve Ultimate-Guitar.com Take our survey!
×
Author
Difficulty
novice
hey guys this is my first tab hope itz all good, if anyone has the chords gizza yell. cheers.


-----4-5-4-7777-5-4-4h5-77-777-5-4-0-----0---0---0-----------------------|
----5-------------------------------2-0h2-0h2-0h2-0h2p0-0h2-4-5-0h222-45-|
---6---------------------------------------------------------------------|
-------------------------------------------------------------------------|
-------------------------------------------------------------------------|
-------------------------------------------------------------------------|

---2s4-7-4-2-4-4s5-0-|
---------------------|
---------------------|
---------------------|
---------------------|
---------------------|
Suggest correction
Give kudos to tab author, rate the tab!
1 2 3 4 5
comments
print report bad tab
1 comment total.
0 reply
k3nsh1n4life 10 Oct 13, 2007 03:00 AM

this is only right in they key of A (capo on the 5th)

guest
You may want to rate the tab now too:
select rating
Wanna post a correction for this tab? Suggest correction