Oops, an error
Loading. Please wait.

Honey Baby Tab

version 2
version 2
15,267 views 1 this week
no commentswrite comment
1 2 3 4 5
please rate
add to favorites
launch autoscroll
font size
0
reset
how to read this tab
guitar tuner
Autoscroll
slow
fast
+/-
esc
set tempo
stop
Help us to improve Ultimate-Guitar.com Take our survey!
×
Contributor
Difficulty
novice
This is the right tab posted by bionacles

[--9--10--9--10-sl-12--12--12--10--9--9h10p9--12--12---121212--9-9-------]
[--10---------------------------------------------------------------10---]
[--9--------------------------------------------------------------------9]
[------------------------------------------------------------------------]
[------------------------------------------------------------------------]
[------------------------------------------------------------------------]

[----------------------------------------------------------------9-9h10p9]
[------10----10----10----------------9-9h10--10-------9-9h10--10---------]
[--9h11--9h11--9h11--9h11--9---9h11-------------9h11---------------------]
[------------------------------------------------------------------------]
[------------------------------------------------------------------------]
[------------------------------------------------------------------------]

[--9--7--7-sl-9-9-9h10p9--9----------------------------------------------]
[----------------------------10------------------------------------------]
[------------------------------------------------------------------------]
[------------------------------------------------------------------------]
[------------------------------------------------------------------------]
[------------------------------------------------------------------------]
Suggest correction What's this?
You can suggest a correction to this tab. Community and Mods will review your correction and vote to approve or reject it.
comments
We did not receive enough feedback on this tab! Please rate:
print report bad tab
1 2 3 4 5
I want to post or [tab]
guest
You may want to rate the tab now too:
select rating
Please do not post tabs as comments. Select "correction" instead!