Oops, an error
Loading. Please wait.

A Song For Milly Michaelson Tab

version 1
version 1

Whole song

Interactive

8,083 views 3 this week
no commentswrite comment
1 2 3 4 5
please rate
add to favorites
launch autoscroll
font size
0
reset
how to read this tab
guitar tuner
Autoscroll
slow
fast
+/-
esc
set tempo
stop
Help us to improve Ultimate-Guitar.com Take our survey!
×
Difficulty
novice
Song: A Thrice for Milly Michaelson
Artist: Thrice
Album: The Alchemy Index vol. III-Air

Guitar I
E|------------------------------------|
B|---0--0--0--0--0--0--0--0-----------|
G|---4--4--4--4--4--4--4--4-----------|
D|---2--2--2--2--2--2--2--2-----------|
A|------------------------------------|
E|------------------------------------|

Guitar II
E|------------------------------------|
B|------------------------------------|
G|------------------------------------|
D|---2---2---2---2---2---2---2---2----|
A|----5---5---5---5---5---5---5---5---|
E|------------------------------------|


The bass makes it sound how it does, changing the sound to make it sound like the 
are changing something, but it's the bass, or it can be used as a Guitar III

Bass
E|--------3--3--5--5--0--0--0--0------|
A|------------------------------------|
D|------------------------------------|
G|------------------------------------|
comments
We did not receive enough feedback on this tab! Please rate:
print report bad tab
1 2 3 4 5
I want to post or [tab]
guest
You may want to rate the tab now too:
select rating
Please do not post tabs as comments. Select "correction" instead!