Oops, an error
Loading. Please wait.

All Eyes Tab

357 views 1 this week
no commentswrite comment
1 2 3 4 5
please rate
add to favorites
launch autoscroll
font size
0
reset
how to read this tab
guitar tuner
Autoscroll
slow
fast
+/-
esc
set tempo
stop
Help us to improve Ultimate-Guitar.com Take our survey!
×
Author
-------------------------------------------------------------------------------
                             All Eyes - Thrice
-------------------------------------------------------------------------------
Tabbed by: SVS=BOD
Email: 

Tuning: Standard Tuning E A D G B e

Both guitars play the same besides from on the intro.

Intro (Guitar 1: Dustin)
e|---------------------------------------------------------------------------|
B|---------------------------------------------------------------------------|
G|--5-----------------------------7------------------------------------------|
D|--5-----------------------------7------------------------------------------|
A|--3-----------------------------5------------------------------------------|
E|---------------------------------------------------------------------------|

e|---------------------------------------------------------------------------|
B|---------------------------------------------------------------------------|
G|------------------------------5-5-5-5-------7-7-7-7------------------------|
D|--5-5-5-5-------2-2-2-2-------5-5-5-5-------7-7-7-7------------------------|
A|--5-5-5-5-------2-2-2-2-------3-3-3-3-------5-5-5-5------------------------|
E|--3-3-3-3-------0-0-0-0----------------------------------------------------|

e|---------------------------------------------------------------------------|
B|---------------------------------------------------------------------------|
G|------------------------------5-5-5-5-------7-7-7-7------------------------|
D|--5-5-5-5-------2-2-2-2-------5-5-5-5-------7-7-7-7------------------------|
A|--5-5-5-5-------2-2-2-2-------3-3-3-3-------5-5-5-5------------------------|
E|--3-3-3-3-------0-0-0-0----------------------------------------------------|

Intro (Guitar 2: Teppei)
e|---------------------------------------------------------------------------|
B|------10-8---10-10-10-8---10-10-10-8---10-10-10-8--------------------------|
G|--7-7-7--7---7--7--7--7---7--7--7--7---7--7--7--7--------------------------|
D|---------------------------------------------------------------------------|
A|---------------------------------------------------------------------------|
E|---------------------------------------------------------------------------|

verse
e|---------------------------------------------------------------------------|
B|---------------------------------------------------------------------------|
G|--9-9-9-9-------7-7-7-7-------5-5-5-5-------7-7-7-7------------------------|
D|--9-9-9-9-------7-7-7-7-------5-5-5-5-------7-7-7-7------------------------|
A|--7-7-7-7-------5-5-5-5-------3-3-3-3-------5-5-5-5------------------------|
E|---------------------------------------------------------------------------|

e|---------------------------------------------------------------------------|
B|---------------------------------------------------------------------------|
G|-------------------------------7-7-7-7-------7-7-7-7-----------------------|
D|--5-5-5-5-------5-5-5-5--------7-7-7-7-------7-7-7-7-----------------------|
A|--5-5-5-5-------5-5-5-5--------5-5-5-5-------5-5-5-5-----------------------|
E|--3-3-3-3-------3-3-3-3----------------------------------------------------|

Refrain 
e|---------------------------------------------------------------------------|
B|---------------------------------------------------------------------------|
G|--5-5-5-5-------5-5-5-5-----------------------7--7--7----------------------|
D|--5-5-5-5-------5-5-5-5-------5--5--5---------7--7--7----------------------|
A|--3-3-3-3-------3-3-3-3-------5--5--5---------5--5--5----------------------|
E|------------------------------3--3--3--------------------------------------|

e|---------------------------------------------------------------------------|
B|---------------------------------------------------------------------------|
G|--5-5-5-5-------5-5-5-5-----------------------7--7--7----------------------|
D|--5-5-5-5-------5-5-5-5-------5--5--5---------7--7--7----------------------|
A|--3-3-3-3-------3-3-3-3-------5--5--5---------5--5--5----------------------|
E|------------------------------3--3--3--------------------------------------|

e|---------------------------------------------------------------------------|
B|---------------------------------------------------------------------------|
G|--5-5-5-5-------5-5-5-5-----------------------7--7--7----------------------|
D|--5-5-5-5-------5-5-5-5-------5--5--5---------7--7--7----------------------|
A|--3-3-3-3-------3-3-3-3-------5--5--5---------5--5--5----------------------|
E|------------------------------3--3--3--------------------------------------|

e|---------------------------------------------------------------------------|
B|---------------------------------------------------------------------------|
G|--5-5-5-5-------5-5-5-5-------7-7-7-7-------7-7-7-7------------------------|
D|--5-5-5-5-------5-5-5-5-------7-7-7-7-------7-7-7-7------------------------|
A|--3-3-3-3-------3-3-3-3-------5-5-5-5-------5-5-5-5------------------------|
E|---------------------------------------------------------------------------|

Bridge (All eyes on me)

e|---------------------------------------------------------------------------|
B|---------------------------------------------------------------------------|
G|------------------------------7-7-7-7-------7-7-7-7------------------------|
D|--5-5-5-5-------5-5-5-5-------7-7-7-7-------7-7-7-7------------------------|
A|--5-5-5-5-------5-5-5-5-------5-5-5-5-------5-5-5-5------------------------|
E|--3-3-3-3-------3-3-3-3----------------------------------------------------|

e|---------------------------------------------------------------------------|
B|---------------------------------------------------------------------------|
G|--9-9-9-9-------7-7-7-7-------5-5-5-5-------5-5-5-5------------------------|
D|--9-9-9-9-------7-7-7-7-------5-5-5-5-------5-5-5-5------------------------|
A|--7-7-7-7-------5-5-5-5-------3-3-3-3-------3-3-3-3------------------------|
E|---------------------------------------------------------------------------|
Order of song:

Intro (x2)
Verse (x2)
Refrain (x1)
Intro (x2)
Verse (x2)
Refrain (x1)
Bridge (x4)
Outro (Same as intro)
Suggest correction
Give kudos to tab author, rate the tab!
1 2 3 4 5
comments
print report bad tab
guest
You may want to rate the tab now too:
select rating
Please do not post tabs as comments. Select "correction" instead!