Oops, an error
Loading. Please wait.

All Thats Left Chords

version 1
version 1

Whole song

3,102 views 3 this week
no commentswrite comment
1 2 3 4 5
please rate
add to favorites
launch autoscroll
font size
0
reset
transpose
0
reset
display chords
guitar tuner
Autoscroll
slow
fast
+/-
esc
set tempo
stop
Help us to improve Ultimate-Guitar.com Take our survey!
×
Author
Thrice
All That's Left
Artist In The Ambulance
2003
Submitted by: paramore_fans@yahoo.com

Key: Bb

Tuning: Standard EADGBe

Chords used:
Gm - 355333
Eb - x68886
Bb - x13331
F -  133211
Cm - x35543
F# - 244322


Intro:

Drumbeats: x2

Dustin: Idle

Teppei : Main Riff
           Gm            F    Gm   F    Gm   F
e|---------------------|---|-----|---|-----|---|
B|---------------------|---|-----|---|-----|---|
G|---------------------|---|-----|---|-----|---|
D|-----5------3------1-|-3-|-5-5-|-3-|-5-5-|-3-|
A|---5------5------5---|-3-|-5-5-|-3-|-5-5-|-3-|
E|-3------3------3-----|-1-|-3-3-|-1-|-3-3-|-1-|

                   Gm
e|-----------------------------------|
B|-----------------------------------|
G|--------------------------3------3-|
D|-----5------3------1---------------|
A|---5------5------5-----------------|
E|-3------3------3------3-3----3-3---|


Both Dustin and Teppei: Gm-F-Eb-F- x2


Verse 1: While doing Teppei's Riff until Chorus
Gm                                   F-Gm--F-Gm--F-
  One day the dreamers died within us
Gm
  When all our answers never came
Gm                                     F-Gm--F-Gm--F-
  We hid the truth beneath our skin but
Gm
  Our shadows never looked the same


Chorus 1:
Eb       F              Gm
  A ghost is all that's left
        Eb
Of everything we swore
   F              Gm
we never would forget
Bb                      Cm
  We tried to bleed the sickness
       Eb
But we drained our hearts instead
Eb      F
  We are we are the dead


Verse 2:
Gm                                      F-Gm--F-Gm--F-
  And when we couldn't stop the bleeding
Gm
  We held our hearts over the flame
Gm                                    F-Gm--F-Gm--F-Gm-
  We couldn't help but call it treason
Gm
  After that we couldn't fill our frames
After that our shadows never looked the same


Chorus 2:
Eb       F              Gm
  A ghost is all that's left
        Eb
Of everything we swore
   F              Gm
we never would forget
Bb                      Cm
  We tried to bleed the sickness
       Eb
But we drained our hearts instead
Eb      F           F#----
  We are we are the dead


Interlude: Gm--

Teppei : Main Riff
           Gm            F    Gm   F    Gm   F
e|---------------------|---|-----|---|-----|---|
B|---------------------|---|-----|---|-----|---|
G|---------------------|---|-----|---|-----|---|
D|-----5------3------1-|-3-|-5-5-|-3-|-5-5-|-3-|
A|---5------5------5---|-3-|-5-5-|-3-|-5-5-|-3-|
E|-3------3------3-----|-1-|-3-3-|-1-|-3-3-|-1-|

                   Gm
e|-----------------------------------|
B|-----------------------------------|
G|--------------------------3------3-|
D|-----5------3------1---------------|
A|---5------5------5-----------------|
E|-3------3------3------3-3----3-3---|


Bridge:
   Gm                F
In summers past we'd challenge fate
     Eb               F
With higher pitch and perfect aim
     Gm                F
And standing fast we'd radiate
  Eb                 F
A light we loved but never named
        Gm      F         Eb
But the answers never came
F                Gm    F          Eb  F----
 And our shadows never looked the same


Chorus 3:
Eb       F              Gm
  A ghost is all that's left 
(we are the ones who lost our faith)
        Eb
Of everything we 
         F              Gm
swore we never would forget 
(can we be saved?)
Bb                      Cm
  We tried to bleed the sickness
       Eb
But we drained our hearts instead
Eb      F           Gm
  We are we are the dead
(we are the ones who lost our faith)
           Eb
A ghost of everything 
   F                 Gm
we thought but never said 
(can we be saved?)
Bb                      Cm
  We tried to bleed the sickness
       Eb
But we drained our hearts instead
Eb           F                 Eb
  We are the ones who lost our faith
          F               Eb
We dug ourselves an early grave
           F#--           (hold)
We are the dead can we be saved?
Suggest correction
What's this?
You can suggest a correction to this tab. Community and Mods will review your correction and vote to approve or reject it.
comments
We did not receive enough feedback on this tab! Please rate:
print report bad tab
1 2 3 4 5
guest
You may want to rate the tab now too:
select rating
Please do not post tabs as comments. Select "correction" instead!