Oops, an error
Loading. Please wait.

At The Last Tab

version 1
version 1

Whole song

Interactive

3,655 views 12 this week
no commentswrite comment
1 2 3 4 5
accurate
x 3
add to favorites
launch autoscroll
font size
0
reset
how to read this tab
guitar tuner
Autoscroll
slow
fast
+/-
esc
set tempo
stop
Help us to improve Ultimate-Guitar.com Take our survey!
×
Difficulty
intermediate
-----------------------------------------------------------------
AT THE LAST - Thrice  (Acoustic cover version)
-----------------------------------------------------------------
Tabbed by: Mike Richardson
Email: m1k3r@hotmail.com

Tuning: Standard E tuning

Intro/Bridge:

   Am		 F (played with thumb on low E)

e|--2----2222222-1111111-111--11---------------------------------|
B|-111-1-1111111-1111111-1111111---------------------------------|
G|-222-2-2222222-2222222-222p000---------------------------------|  X4
D|-222-2-2222222-3333333-3333333---------------------------------|
A|00000000000000-3333333-3333333---------------------------------|
E|---------------1111111-111--11---------------------------------|



Verse:


e|---5-------------3------1------0-------------------------------|
B|---------------------------------------------------------------|
G|-/5-------------4------2------2--------------------------------|  X2
D|-/7-------------5------3------2--------------------------------|
A|-/7-------------5------3------0--------------5-----------------|
E|-/5-------------3------1-------------5\1---3\------------------|

It's a shame that some must go without
I's no fool to think it might           be my problem




e|---5-------------7-------8------5------------------------------|
B|---------------------------------------------------------------|
G|-/5-------------9------10------5-------------------------------|  X2
D|-/7-------------9------10------7-------------------------------|
A|-/7-------------7------8-------7-------------------------------|
E|-/5----------------------------5------5\1---3\0----------------|

Needy hands were reaching out
Kept my spare change and my pride       in a tight fist



#In a tight fist# (knock on acoustic for rhythm)


Chorus:


e|-55555---111/3333----------------------------------------------|
B|-55555---111/3333----------------------------------------------|
G|-55555---222/4444----------------------------------------------|  X4
D|-77777---333/5555----------------------------------------------|
A|-77777---333/5555----------------------------------------------|
E|-55555---111/3333----------------------------------------------|

Now at the last
Everything has changed in this pale light
That death is cast on all I've done
On all I've done



Play Intro/Bridge


Verse 2:


e|---------------------------------------------------------------|
B|---------------------------------------------------------------|
G|---------------5-----------------------------------------------|  X2
D|-7-----7\3----55-----7--------------7\3----3\2-----------------|
A|-7-----7\3----53-----7--------------7\3----3\2-----------------|
E|-5-----5\1----3------5--------------5\1----1\0-----------------|

I'm a good man on the whole
Who can blame me for looking out       for number one



e|---5-------------3------1------0-------------------------------|
B|---------------------------------------------------------------|
G|-/5-------------4------2------2--------------------------------|  X4
D|-/7-------------5------3------2--------------------------------|
A|-/7-------------5------3------0--------------------------------|
E|-/5-------------3------1---------------------------------------|

Never killed, I never stole
Small indulgence now and then, 		so what of it?
					I'm a good man
					I'm a good man



e|---5-------------7-------8------5------------------------------|
B|---------------------------------------------------------------|
G|-/5-------------9------10------5-------------------------------|  X2
D|-/7-------------9------10------7-------------------------------|
A|-/7-------------7------8-------7-------------------------------|
E|-/5----------------------------5-------------------------------|

					Am I a good man? 
					I thought I was..


Bridge 2:
(Crescendo)

e|--0------1------3------5---------------------------------------|
B|--0------1------3------5---------------------------------------|
G|--0------2------4------5---------------------------------------|  X4
D|--2------3------5------7---------------------------------------|
A|--2------3------5------7---------------------------------------|
E|--0------1------3------5---------------------------------------|

The rewards of this life now count for naught
My body soon buried and left to rot
Good times gone how quickly it all has past
My God, now I see how I've squandered each and every breathe


Play Chorus X2

________________________________________________________________


| /  slide up
| \  slide down
| h  hammer-on
| p  pull-off
| ~  vibrato
| +  harmonic
| x  Mute note

_________________________________________________________________


SONG STRUCTURE:

Intro/Bridge,
Verse 1;

It's a shame that some must go without
I's no fool to think it might be my problem
Needy hands were reaching out
Kept my spare change and my pride in a tight fist
In a tight fist

Chorus;
Now at the last
Everything has changed in this pale light
That death is cast on all I've done
On all I've done

Intro/Bridge,
Verse 2;
I'm a good man on the whole
Who can blame me for looking out for number one
Never killed, I never stole
Small indulgence now and then, so what of it?

I'm a good man, I'm a good man
Am I a good man? thought I was...

Bridge 2;
The rewards of this life now count for naught
My body soon buried and left to rot
Good times gone how quickly it all has past
My God, now I see how I've squandered each and every breathe

Chorus;
Now at the last
Everything has changed in this pale light
That death is cast on all I've done

Now at the last
Everything has changed in this pale light
Looking back I am undone
I am undone

___________________________________________________________________


Note:
I realise this is not exactly how the song is played by thrice but it is a version I figured out
to incorprate both guitars and some bass parts to sound good on an acoustic guitar.
Suggest correction
What's this?
You can suggest a correction to this tab. Community and Mods will review your correction and vote to approve or reject it.
comments
We did not receive enough feedback on this tab! Please rate:
print report bad tab
1 2 3 4 5
guest
You may want to rate the tab now too:
select rating
Please do not post tabs as comments. Select "correction" instead!