Oops, an error
Loading. Please wait.

Beggars Tab

version 2
version 2

Whole song

Interactive

8,135 views 33 this week
2 commentsread comments
1 2 3 4 5
accurate
x 8
add to favorites
launch autoscroll
font size
0
reset
how to read this tab
guitar tuner
Autoscroll
slow
fast
+/-
esc
set tempo
stop
Help us to improve Ultimate-Guitar.com Take our survey!
×
Difficulty
novice
e|-----------------------------------------------------------------|
b|--5---5---5---5---6---6---6---6---5---5---5---5---6---6---6---6--|
g|--5---5---5---5---5---5---5---5---5---5---5---5---5---5---5---5--|
d|----7---7---7---7---7---7---7---7---7---7---7---7---7---7---7----|
a|-----------------------------------------------------------------|
E|-----------------------------------------------------------------|

e|-----------------------------------------------------------------|
b|--5---5---5---5---6---6---6---6---5---5---5---5---6---6---6---6--|
g|--5---5---5---5---5---5---5---5---5---5---5---5---5---5---5---5--|
d|----7---7---7---7---7---7---7---7---7---7---7---7---7---7---7----|
a|-----------------------------------------------------------------|
E|-----------------------------------------------------------------|

e|-----------------------------------------------------------------|
b|--8---8---8---8---9---9---9---9---5---5---5---5---7---7---7---7--|
g|--7---7---7---7---7---7---7---7---5---5---5---5---5---5---5---5--|
d|----7---7---7---7---7---7---7---7---7---7---7---7---7---7---7----|
a|-----------------------------------------------------------------|
E|-----------------------------------------------------------------|

e|----------------------------------|
b|--6---6---6---6---5---5---5---5---|
g|--5---5---5---5---4---4---4---4---|
d|----7---7---7---7---2---2---2---2-|
a|----------------------------------|
E|----------------------------------|

The rest of the song gets harder as it progresses.  3rd verse introduces a second guitar 
that follows with distorted chords.  You should be okay if you use this progression.

e|--0---1---0---1---0---1---3---0---0---2---1---0------|
b|--1---1---1---1---1---1---3---0---1---1---1---0------|
g|--2---2---2---2---2---2---0---1---2---2---2---1------|
d|--2---3---2---3---2---3---0---2---2---2---3---2------|
a|--0---3---0---3---0---3---2---2---0---0---3---2------|
E|--------------------------3---0---------------0------|

e|--12~------12~------13-------12~-------------------------------|
b|------9-10~----9-10~----9-10~----9-10~-------------------------|
g|--------------------------------------10~-8-9~-----10~-9-8~----|
d|-----------------------------------------------7~-----------5~-|
a|---------------------------------------------------------------|
E|---------------------------------------------------------------|

e|--------------------------13~-11-12-----13~-11-12~-------------|
b|------------------------------------10~-----------8~-----------|
g|-10~-8-9~---10~-9-8~-------------------------------------------|
d|---------7~---------5~-----------------------------------------|
a|---------------------------------------------------------------|
E|---------------------------------------------------------------|
Suggest correction
What's this?
You can suggest a correction to this tab. Community and Mods will review your correction and vote to approve or reject it.
comments
print report bad tab
2 comments total.
+1 reply
SixStringMuzik 25 wrote on January 1 2011, 09:12 am

Correction: On the part where you have it as:

e| --------
b|8---8---8
g|7---7---7
d|--7---7--

The bass note on that 'D' string should be on the 9th fret, not the 7th, like this:

e| ----------------------------------
b|8---8---8---8---9---9---9---9---5--
g|7---7---7---7---7---7---7---7---5-- And so on.
d|--9---9---9---9 ---9---9---9---9---7

Well played, though. The first part, at least, is well done.

+1 reply
SixStringMuzik 25 wrote on January 1 2011, 09:26 am

At the end it goes from this:

e|-----------------------------------
b|6---6---6---6---5---5---5---5---5--
g|5---5---5---5---4---4---4---4---5-- Then repeats to the beginning.
d|--7---7---7---7---6---6---6---6---7
a|-----------------------------------
E|-----------------------------------

Very well done, though.

guest
You may want to rate the tab now too:
select rating
Please do not post tabs as comments. Select "correction" instead!