Oops, an error
Loading. Please wait.

Beltsville Crucible Tab

4,571 views 9 this week
4 commentsread comments
1 2 3 4 5
accurate
x 5
add to favorites
launch autoscroll
font size
0
reset
how to read this tab
guitar tuner
Autoscroll
slow
fast
+/-
esc
set tempo
stop
Help us to improve Ultimate-Guitar.com Take our survey!
×
Contributor
-------------------------------------------------------------------------------
               THE BELTSVILLE CRUCIBLE - Thrice
-------------------------------------------------------------------------------

By:  whocares777

DROP C# TUNING!

... - palm mute
/ \ - slide
h   - hammer on
p   - pull off
*   - harmonic
~   - let ring out
4x
4x  - mute after strumming
4x

GUITAR 1'S PARTS:
-----------------
Intro:  (Extremely fast picking)
D#|4-4-4-4-4-5-5-5-5-5-4-4-4-4-4-7-5-5-5-4-4-4-5-5-5-4-4-4-4-4-5-5-5-5-5-4-4-4|
A#|7-7-7-7-7-7-7-7-7-7-7-7-7-7-7-7-7-7-7-7-7-7-7-7-7-5-5-5-5-5-5-5-5-5-5-5-5-5|
F#|---------------------------------------------------------------------------|
C#|---------------------------------------------------------------------------|
G#|---------------------------------------------------------------------------|
C#|---------------------------------------------------------------------------|
     .......   .......   .......   ...   ...   ...     .......   .......   ...

Intro Cont'd:
D#|4-4-7-5-5-5-4-4-4-5-5-5-4-4-4-4-4-5-5-5-5-5-4-4-4-4-4-7-5-5-5-4-4-4-5-5-5--|
A#|5-5-5-5-5-5-5-5-5-5-5-5-3-3-3-3-3-3-3-3-3-3-3-3-3-3-3-3-3-3-3-3-3-3-3-3-3--|
F#|---------------------------------------------------------------------------|
C#|---------------------------------------------------------------------------|
G#|---------------------------------------------------------------------------|
C#|---------------------------------------------------------------------------|
   ...   ...   ...   ...     .......   .......   .......   ...   ...   ...

Intro Cont'd:
D#|4-4-4-4-4-5-5-5-5-5-4-4-4-4-4-7-5-5-5-4-4-4-5-5-5-------------------------|
A#|5-5-5-5-5-5-5-5-5-5-5-5-5-5-5-5-5-5-5-5-5-5-5-5-5-------------------------|
F#|--------------------------------------------------------------------------|
C#|--------------------------------------------------------------------------|
G#|--------------------------------------------------------------------------|
C#|--------------------------------------------------------------------------|
     .......   .......   .......   ...   ...   ...

Intro Cont'd:  (2x)
D#|5-5-7-5-7-5-7-4/5-5--4-4-5-4-7-5-7-4/5-5--4-4-5-4-7-5-7-4/5-5--4-4-5-4-7-5|
A#|7-7-7-7-7-7-7-7-7-7--5-5-5-5-5-5-5-5-5-5--3-3-3-3-3-3-3-3-3-3--5-5-5-5-5-5|
F#|--------------------------------------------------------------------------|
C#|--------------------------------------------------------------------------|
G#|--------------------------------------------------------------------------|
C#|--------------------------------------------------------------------------|

Intro Cont'd:
D#|7-4/5-5-------------------------------------------------------------------|
A#|5-5-5-5-------------------------------------------------------------------|
F#|--------------------------------------------------------------------------|
C#|--------------------------------------------------------------------------|
G#|--------------------------------------------------------------------------|
C#|--------------------------------------------------------------------------|

Verse:  "True friends stab you..."
D#|------------------------------------------------------------------0-------|
A#|--------------------7~--5~-----------------------7~--9~-------------0-----|
F#|--------------------6~---------------------------6~-----------------------|
C#|0~------2~------4~----------0~------2~------4~-----------0~---2~----------|
G#|0~------2~------4~----------0~------2~------4~-----------0~---2~----------|
C#|0~------2~------4~----------0~------2~------4~-----------0~---2~----------|

Chorus:  "No more and no less..."  (2x)
D#|--------------------------------------------------------------------------|
A#|--------------------------------------------------------------------------|
F#|--------------------------------------------------------------------------|
C#|7-7-7-7-7-7-7-7-7-7-7-7-7-7-7-7-4-4-4-4-4-4-4-4-4-4-4-4-4-4-4-4-----------|
G#|7-7-7-7-7-7-7-7-7-7-7-7-7-7-7-7-4-4-4-4-4-4-4-4-4-4-4-4-4-4-4-4-----------|
C#|7-7-7-7-7-7-7-7-7-7-7-7-7-7-7-7-4-4-4-4-4-4-4-4-4-4-4-4-4-4-4-4-----------|

Chorus Cont'd:  (2x)
D#|----5---4-----7-----5-----4h5p4---4-----5---4-----7-----5-----4h5p4---4---|
A#|3-3---3---3-3---3-3---3-3-------5---5-5---5---5-5---5-5---5-5-------5-----|
F#|--------------------------------------------------------------------------|
C#|--------------------------------------------------------------------------|
G#|--------------------------------------------------------------------------|
C#|--------------------------------------------------------------------------|
   ...   .   ...   ...   ...       .   ...   .   ...   ...   ...       .

Chorus Cont'd:
D#|------5---4------7-----5-----4h5p4---4-----5---4-----7-----5-----4h5p4---4|
A#|--7-7---7---7-7----7-7---7-7-------5---7-7---7---7-7---7-7---7-7-------5--|
F#|--------------------------------------------------------------------------|
C#|--------------------------------------------------------------------------|
G#|--------------------------------------------------------------------------|
C#|--------------------------------------------------------------------------|
     ...   .   ...    ...   ...       .   ...   .   ...   ...   ...       .

Repeat Verse

Repeat Chorus

Bridge/Outro:  (Comes in at 2:34)
D#|-----------------------|
A#|-----------------------|
F#|-----------------------|
C#|-*----------------*----|
G#|12~--------------12~---|
C#|-----------------------|

Bridge Cont'd/Outro:  (Repeat a couple times)
D#|--------------------------------------------------------------------------|
A#|--------------------------------------------------------------------------|
F#|6-6-6-6-6-6-6-6-6-6-6-6-6-6-6-6-2-2-2-2-2-2-2-2-2-2-2-2-2-2-2-2-----------|
C#|7-7-7-7-7-7-7-7-7-7-7-7-7-7-7-7-4-4-4-4-4-4-4-4-4-4-4-4-4-4-4-4-----------|
G#|--------------------------------------------------------------------------|
C#|--------------------------------------------------------------------------|

Bridge Cont'd/Outro:  (Repeat this until end)
D#|--------------------------------------------------------------------------|
A#|------------------------------------5-5-5-5-5-5-5-5-5-5-5-5-5-5-5-5-------|
F#|7~--6-6-6-6-6-6-6-6-9-9-9-9-9-9-9-9-6-6-6-6-6-6-6-6-7-7-7-7-7-7-7-7-------|
C#|7~--7-7-7-7-7-7-7-7-7-7-7-7-7-7-7-7-4-4-4-4-4-4-4-4-4-4-4-4-4-4-4-4-------|
G#|5~------------------------------------------------------------------------|
C#|--------------------------------------------------------------------------|

End on:
D#|--------|
A#|--------|
F#|--------|
C#|---0~---|
G#|---0~---|
C#|---0~---|

GUITAR 2'S PARTS:
-----------------
Intro:
D#|--------------------------------------------------------------------------|
A#|--------------------------------------------------------------------------|
F#|--------------------------------------------------------------------------|
C#|4x----2~----0~-----2~-----------------------------------------------------|
G#|4x----2~----0~-----2~-----------------------------------------------------|
C#|4x----2~----0~-----2~-----------------------------------------------------|

Intro Cont'd:  (2x)
D#|--------------------------------------------------------------------------|
A#|--------------------------------------------------------------------------|
F#|--------------------------------------------------------------------------|
C#|4-4-4-4-4-4-4-4-4-4-4-4-4-4-4-4-2-2-2-2-2-2-2-2-2-2-2-2-2-2-2-2-0-0-0-0-0-|
G#|4-4-4-4-4-4-4-4-4-4-4-4-4-4-4-4-2-2-2-2-2-2-2-2-2-2-2-2-2-2-2-2-0-0-0-0-0-|
C#|4-4-4-4-4-4-4-4-4-4-4-4-4-4-4-4-2-2-2-2-2-2-2-2-2-2-2-2-2-2-2-2-0-0-0-0-0-|

Intro Cont'd:
D#|--------------------------------------------------------------------------|
A#|--------------------------------------------------------------------------|
F#|--------------------------------------------------------------------------|
C#|0-0-0-0-0-0-0-0-0-0-0-2-2-2-2-2-2-2-2-2-2-2-2-2-2-2-2---------------------|
G#|0-0-0-0-0-0-0-0-0-0-0-2-2-2-2-2-2-2-2-2-2-2-2-2-2-2-2---------------------|
C#|0-0-0-0-0-0-0-0-0-0-0-2-2-2-2-2-2-2-2-2-2-2-2-2-2-2-2---------------------|

Verse:  "True friends stab you..."
D#|--------------------------------------------------------------------------|
A#|--------------------------------------------------------------------------|
F#|--------------------------------------------------------------------------|
C#|0~----2~----4~----0~----2~----4~----0~----2~------------------------------|
G#|0~----2~----4~----0~----2~----4~----0~----2~------------------------------|
C#|0~----2~----4~----0~----2~----4~----0~----2~------------------------------|

Chorus:  "No more and less than..."  (2x)
D#|--------------------------------------------------------------------------|
A#|--------------------------------------------------------------------------|
F#|--------------------------------------------------------------------------|
C#|7-7-7-7-7-7-7-7-7-7-7-7-7-7-7-7-4-4-4-4-4-4-4-4-4-4-4-4-4-4-4-4-----------|
G#|7-7-7-7-7-7-7-7-7-7-7-7-7-7-7-7-4-4-4-4-4-4-4-4-4-4-4-4-4-4-4-4-----------|
C#|7-7-7-7-7-7-7-7-7-7-7-7-7-7-7-7-4-4-4-4-4-4-4-4-4-4-4-4-4-4-4-4-----------|

Chorus Cont'd:  (2x)
D#|--------------------------------------------------------------------------|
A#|--------------------------------------------------------------------------|
F#|--------------------------------------------------------------------------|
C#|0-0-0-0-0-0-0-0-2-2-2-2-2-2-2-2-4-4-4-4-4-4-4-4-4-4-4-4-4-4-4-4-----------|
G#|0-0-0-0-0-0-0-0-2-2-2-2-2-2-2-2-4-4-4-4-4-4-4-4-4-4-4-4-4-4-4-4-----------|
C#|0-0-0-0-0-0-0-0-2-2-2-2-2-2-2-2-4-4-4-4-4-4-4-4-4-4-4-4-4-4-4-4-----------|

Chorus Cont'd:
D#|--------------------------------------------------------------------------|
A#|--------------------------------------------------------------------------|
F#|--------------------------------------------------------------------------|
C#|0-0-0-0-0-0-0-0-2-2-2-2-2-2-2-2-------------------------------------------|
G#|0-0-0-0-0-0-0-0-2-2-2-2-2-2-2-2-------------------------------------------|
C#|0-0-0-0-0-0-0-0-2-2-2-2-2-2-2-2-------------------------------------------|

Repeat Verse

Repeat Chorus

Bridge/Outro:  (Repeat whole thing until end)
D#|5-5-5-5-7-7-7-7-4-4-4-4-2-2-2-2-5-5-5-5-5-5-5-5-5-5-5-5-5-5-5-5-----------|
A#|5-5-5-5-5-5-5-5-5-5-5-5-2-2-2-2-5-5-5-5-5-5-5-5-5-5-5-5-5-5-5-5-----------|
F#|6-6-6-6-6-6-6-6-6-6-6-6---------------------------------------------------|
C#|--------------------------------------------------------------------------|
G#|--------------------------------------------------------------------------|
C#|--------------------------------------------------------------------------|

Bridge Cont'd/Outro:
D#|5-5-5-5-7-7-7-7-4-4-4-4-2-2-2-2-5-5-5-5-5-5-5\2-2-2-2-2-2-2-2-------------|
A#|5-5-5-5-5-5-5-5-5-5-5-5-2-2-2-2-5-5-5-5-5-5-5\3-3-3-3-3-3-3-3-------------|
F#|6-6-6-6-6-6-6-6-6-6-6-6---------------------------------------------------|
C#|--------------------------------------------------------------------------|
G#|--------------------------------------------------------------------------|
C#|--------------------------------------------------------------------------|

End on:
D#|--------|
A#|--------|
F#|--------|
C#|---0~---|
G#|---0~---|
C#|---0~---|

I'm sure that this isn't 100% correct...especially the Bridge/Outro but it's
close.
===============================================================================
Suggest correction new What's this?
You can suggest a correction to this tab. Community and Mods will review your correction and vote to approve or reject it.
comments
print report bad tab
4 comments total. Showing first comments.
0 reply
Zamboni 2,792 wrote on March 24 2005, 12:00 am

intro is played on fourth and fifth strings not fifth and sixth

+2 reply
Zamboni 2,792 wrote on March 24 2005, 12:00 am

er, second and third, not first and second

0 reply
nirvana666 135 wrote on April 5 2005, 12:00 am

not the greatest tab but one hell of an attempt lol

guest
You may want to rate the tab now too:
select rating
Please do not post tabs as comments. Select "correction" instead!