Oops, an error
Loading. Please wait.

Better Days Tab

version 2
version 2

Intro

Interactive

510 views 1 this week
1 commentread comment
1 2 3 4 5
please rate
add to favorites
launch autoscroll
font size
0
reset
how to read this tab
guitar tuner
Autoscroll
slow
fast
+/-
esc
set tempo
stop
Help us to improve Ultimate-Guitar.com Take our survey!
×
Author
Thrice - Better Days (Intro)

Tabbed by Shawn Susanka

All I could find on this song as far as tablature was a single lead guitar tab and a 
Guitar Pro tab.  Since I assume there are others out there who's demo of Guitar Pro 
has expired, I decided I would do my best to figure out a more complete tab for everyone.

I can assure you that this is not a 100% accurate tab since certain parts are all 
but inaudible but it sounds pretty damn close to the real thing.  I also didn't
really bother with adding correct hammer, pulls, or slides.  
Here is audio of me playing this exact tab:

http://www.youtube.com/watch?v=I7QKSSf1R4A

Let me know what you think - SusankaMusic@Gmail.com


(Guitar1)
e--0-----2-----3---0----2-----3----0-----------0--2-----0-----2-|
B----2-----2-----2---2----2-----2--------1------------3---------|
G------2-----2---------2----2----------0-----0------2-------2---|
D------------------------------------2------------0-------0-----|
A----------------------------------3-------3--------------------|
E--0---------------0--------------------------------------------|

(Guitar2)
e-/7------------------------------7h8-10-8-7h8p7--5----3----5---|
B---------------------------------------------------------------|
G---------------------------------------------------------------|
D---------------------------------------------------------------|
A---------------------------------------------------------------|
E---------------------------------------------------------------|

(Guitar3)
e-/3------------------------------3h5--7-5-3h5p3--2----0----2---|
B---------------------------------------------------------------|
G---------------------------------------------------------------|
D---------------------------------------------------------------|
A---------------------------------------------------------------|
E---------------------------------------------------------------|

(Bass)
G---------------------------------------------------------------|
D---------------------------------------------------------------|
A----------------------------------3--------------5-------------|
E--0------------------------------------------------------------|

======================================================================


(Guitar1)
e--0-----2-----3---0----2-----3----0-----------0--2-----0-----2-|
B----2-----2-----2---2----2-----2--------1------------3---------|
G------2-----2---------2----2----------0-----0------2-------2---|
D------------------------------------2------------0-------0-----|
A----------------------------------3-------3--------------------|
E--0---------------0--------------------------------------------|

(Guitar2)
e-/7------------------------------7h8-10-8-7h8p7--5----3----2---|
B---------------------------------------------------------------|
G---------------------------------------------------------------|
D---------------------------------------------------------------|
A---------------------------------------------------------------|
E---------------------------------------------------------------|

(Guitar3)
e-/3------------------------------3h5--7-5-3h5p3--2----0--------|
B-----------------------------------------------------------3---|
G---------------------------------------------------------------|
D---------------------------------------------------------------|
A---------------------------------------------------------------|
E---------------------------------------------------------------|

(Bass)
G---------------------------------------------------------------|
D---------------------------------------------------------------|
A----------------------------------3--------------5-------------|
E--0------------------------------------------------------------|

======================================================================

(Guitar1)
e--0-----2-----3---0----2-----3---0-----------0---2-----0-----2-|
B----2-----2-----2---2----2-----2-------1-------------3---------|
G------2-----2---------2----2---------0-----0-------2-------2---|
D-----------------------------------2-------------0-------0-----|
A---------------------------------3-------3---------------------|
E--0---------------0--------------------------------------------|

(Guitar2)
e--0------------------------------3-5-7-3-5-7-8-7-5----7----8---|
B---------------------------------------------------------------|
G---------------------------------------------------------------|
D---------------------------------------------------------------|
A---------------------------------------------------------------|
E---------------------------------------------------------------|

(Guitar3)
e---------------------------------0-2-3-0-2-3-5-3-2----3----5---|
B---------------------------------------------------------------|
G--4------------------------------------------------------------|
D---------------------------------------------------------------|
A---------------------------------------------------------------|
E---------------------------------------------------------------|

(Bass)
G---------------------------------------------------------------|
D---------------------------------------------------------------|
A----------------------------------3--------------5-------------|
E--0------------------------------------------------------------|

======================================================================


(Guitar1)
e--3-----------3---3-----------3--0-----------0---2-----0-----2-|
B--------0---------------0--------------1-------------3---------|
G------0---------------0--------------0-----0-------2-------2---|
D----0-------0-------0-------0------2-------------0-------0-----|
A---------------------------------3-------3---------------------|
E--3-------3-------3-------3------------------------------------|

(Guitar2)
e--7------------------------------3-5-7-5-7-8-7-5-3-----2-----0-|
B---------------------------------------------------------------|
G---------------------------------------------------------------|
D---------------------------------------------------------------|
A---------------------------------------------------------------|
E---------------------------------------------------------------|

(Guitar3)
e--3------------------------------0-2-3-2-3-5-3-2-0-------------|
B-------------------------------------------------------3-------|
G-------------------------------------------------------------4-|
D---------------------------------------------------------------|
A---------------------------------------------------------------|
E---------------------------------------------------------------|

(Bass)
G---------------------------------------------------------------|
D---------------------------------------------------------------|
A----------------------------------3--------------5-------------|
E--3------------------------------------------------------------|

======================================================================

(Palm Muting)

(Guitar1)
   Em      Em      G      A        Em      Em      G      A

(Guitar2)
e-------------------------------|-------------------------------|
B-------------------------------|-------------------------------|
G-------------------------------|-------------------------------|
D-------------------------------|-------------------------------|
A--7-9-10--7-9-10--12-10--12-9--|--7-9-10--7-9-10--12-10--12-9--|
E-------------------------------|-------------------------------|

======================================================================

(Guitar1)
   Em      Em      G      A        Em      Em      G      A

(Guitar2)
e-------------------------------|-------------------------------|
B-------------------------------|-------------------------------|
G-------------------------------|-------------------------------|
D-------------------------------|-------------------------------|
A--7-9-10--7-9-10--12-10--12-9--|--7-9-10--7-9-10--12-10--12-9--|
E-------------------------------|-------------------------------|

(Guitar3)
e-------------------------------|-------------------------------|
B-------------------------------|-------------------------------|
G-------4-------4---4------5-4--|-------4-------4---4------5-4--|
D--5-7-----5-7---------7--------|--5-7-----5-7---------7--------|
A-------------------------------|-------------------------------|
E-------------------------------|-------------------------------|
Suggest correction
Give kudos to tab author, rate the tab!
1 2 3 4 5
comments
print report bad tab
1 comment total.
0 reply
Canttellwhat 76 wrote on July 3 2010, 10:48 pm

If you like to jam to this song here is the "Spanish" sounding part at the end.
Bm -> A -> G -> F#

I slap the guitar after each note to play it like it sounds.
Dont know the solo. sorry
Enjoy

guest
You may want to rate the tab now too:
select rating
Wanna post a correction for this tab? Suggest correction