Oops, an error
Loading. Please wait.

Between The End And Where We Lie Bass Tab

version 1
version 1

Whole song

Interactive

1,167 views 1 this week
no commentswrite comment
1 2 3 4 5
3 more votes to show rating
add to favorites
launch autoscroll
font size
0
reset
guitar tuner
Autoscroll
slow
fast
+/-
esc
set tempo
stop
Help us to improve Ultimate-Guitar.com Take our survey!
×
Author
Thrice - Between The End And Where We Lie
Tabbed by revolt! (onlysmartieshavetheanswer66@hotmail.com)

(01:24)

X2
F|--------------------------------------------------------|
C|--------------------------------------------------------|
G|-7-7--7-7-7-7--7-7-7--7-7-7--6-6--6-6-6-9-9--9-9-9--9-9-|
C|--------------------------------------------------------|

F|--------------------------------------------------------------------|
C|--------------------------------------------------------------------|
G|--------------------------------------------------------------------|
C|-10-10--10-10-10-10--10-10-10--10-10-10--9-9--9-9-9-9--9-9-9--9-9-9-|

X1
F|--------------------------------------------------------|
C|--------------------------------------------------------|
G|-7-7--7-7-7-7--7-7-7--7-7-7--6-6--6-6-6-6--6-6-6--6-6-6-|
C|--------------------------------------------------------|

F|-----------------------------------------------------------------------|
C|-----------------------------------------------------------------------|
G|--------------------------------------------------------------------7~-|
C|-10-10--10-10-10-10--10-10-10--10-10-10--9-9--9-9-9-9--9-9-9--9-9-9----|

(02:17)

X4
F|--------------------------------------------------------------------------------|
C|--------------------------------------------------------------------------------|
G|--------------------------------------------------------------------------------|
C|-10-10-10-10-10-10-7-10-10-10-10-10-10-10-10-10-7-7-7-7-7-7-5-7-7-7-7-7-7-7-7-7-|

X1
F|-----|
C|-----|
G|-----|
C|-10~-|

(02:58)

X1
F|--------------------------------------------------------|
C|--------------------------------------------------------|
G|-7-7--7-7-7-7--7-7-7--7-7-7--6-6--6-6-6-9-9--9-9-9--9-9-|
C|--------------------------------------------------------|

F|--------------------------------------------------------------------|
C|--------------------------------------------------------------------|
G|--------------------------------------------------------------------|
C|-10-10--10-10-10-10--10-10-10--10-10-10--9-9--9-9-9-9--9-9-9--9-9-9-|

X1
F|--------------------------------------------------------|
C|--------------------------------------------------------|
G|-7-7--7-7-7-7--7-7-7--7-7-7--6-6--6-6-6-6--6-6-6--6-6-6-|
C|--------------------------------------------------------|

F|--------------------------------------------------------------------|
C|--------------------------------------------------------------------|
G|--------------------------------------------------------------------|
C|-10-10--10-10-10-10--10-10-10--10-10-10--9-9--9-9-9-9--9-9-9--9-9-9-|

X1
F|-----------------------------------|
C|-----------------------------------|
G|-----------------------------------|
C|-10-10-10-7-10-10-10-7-7-7-5-7-7-7-|

X1
F|--------------------------------------|
C|--------------------------------------|
G|--------------------------------------|
C|-10-10-10-7-10-10-10-7-7-7-5-10-9-7-7-|

X1
F|-----------------------------------|
C|-----------------------------------|
G|-----------------------------------|
C|-10-10-10-7-10-10-10-7-7-7-5-7-7-7-|

X1
F|-----|
C|-----|
G|-----|
C|-10~-|
Suggest correction
Give kudos to tab author, rate the tab!
1 2 3 4 5
comments
print report bad tab
guest
You may want to rate the tab now too:
select rating
Wanna post a correction for this tab? Suggest correction