Oops, an error
Loading. Please wait.

Black Honey Tab

version 1
version 1

Acoustic

  • This is a tab of how Dustin and Teppei perform the song acoustically.

Whole song

  • This is a condensed copy of version 1 with the lea... Show more

Interactive

262 views 12 this week
no commentswrite comment
1 2 3 4 5
3 more votes to show rating
add to favorites
launch autoscroll
font size
0
reset
how to read this tab
guitar tuner
Autoscroll
slow
fast
+/-
esc
set tempo
stop
Help us to improve Ultimate-Guitar.com Take our survey!
×
Author
Difficulty
Tuning
novice
D G C F A D
About this tab version
This is a tab of how Dustin and Teppei perform the song acoustically. Was this info helpful? Yes No
Thrice
"Black Honey (Acoustic)"

Tune down a step.

https://www.youtube.com/watch?v=N6jzG-NSR00



[Intro]
  G1 (Teppei)
D|----------------|----------------|----------------|----------------|
A|----------------|----------------|----------------|----------------|
F|----2~----2~--2~|----2~----2~--2~|----2~----2~--2~|----2~------0-2-|
C|----------------|----------------|----------------|----------3-----|
G|0---------------|----------------|0---------------|----------------|
D|----------------|1---------------|----------------|1---------------|
 |G2 (Dustin)                                                         x2
D|----0-----0---0-|----0-----0---0-|----0-----0---0-|----0-----0---0-|
A|----1-----1-1-1-|----1-----1-1-1-|----1-----1-1-1-|----1-----1-1-1-|
F|2---2-----2-2-2-|2---2-----2-2-2-|2---2-----2-2-2-|2---2-----2-2-2-|
C|2---2-----2-2-2-|3---3-----3-3-3-|2---2-----2-2-2-|3---3-----3-3-3-|
G|0-----------0---|3-----------3---|0-----------0---|3-----------3---|
D|----------------|----------------|----------------|----------------|


[Verse]

D|----------------|----------------|----------------|----------------|
A|----------------|----------------|----------------|----------------|
F|----2-----2---2-|----2-----2---2-|----2-----2---2-|----2-------0-2-|
C|----------------|----------------|----------------|----------3-----|
G|0---------------|----------------|0---------------|----------------|
D|----------------|1---------------|----------------|1---------------|
 |                                                                    x4
D|----0-----0---0-|----0-----0---0-|----0-----0---0-|----0-----0---0-|
A|----1-----1-1-1-|----1-----1-1-1-|----1-----1-1-1-|----1-----1-1-1-|
F|2---2-----2-2-2-|2---2-----2-2-2-|2---2-----2-2-2-|2---2-----2-2-2-|
C|2---2-----2-2-2-|3---3-----3-3-3-|2---2-----2-2-2-|3---3-----3-3-3-|
G|0-----------0---|3-----------3---|0-----------0---|3-----------3---|
D|----------------|----------------|----------------|----------------|


[Pre-Chorus]

D|----------------|----------------|----------------|----------------|
A|----0-----0---0-|----0-----0---0-|----0-----0---0-|----0-----0---0-|
F|----4~----4~4~4~|----4~----4~4~4~|----2~----2~2~2~|----2~----2~2~2~|
C|----5~----5~5~5~|----5~----5~5~5~|----3~----3~3~3~|----3~----3~3~3~|
G|----------------|----------------|----------------|----------------|
D|3~--------------|3~--------------|1~--------------|1~--------------|
 |
D|----0-----0---0-|----0-----0---0-|----0-----0---0-|----0-----0---0-|
A|3---3-----3-3-3-|3---3-----3-3-3-|----1-----1-1-1-|----1-----1-1-1-|
F|4---4-----4-4-4-|4---4-----4-4-4-|2---2-----2-2-2-|2---2-----2-2-2-|
C|5---5-----5-5-5-|5---5-----5-5-5-|3---3-----3-3-3-|3---3-----3-3-3-|
G|5-----------5---|5-----------5---|3-----------3---|3-----------3---|
D|----------------|----------------|----------------|----------------|


D|----------------|----------------|----------------|
A|----0-----0---0-|----0-----0---0-|0~----------x-x-|
F|----4~----4~4~4~|----4~----4~4~4~|2~----------x-x-|
C|----5~----5~5~5~|----5~----5~5~5~|3~----------x-x-|
G|----------------|----------------|------------x-x-|
D|3---------------|1---------------|1~--------------|
 |
D|----0-----0---0-|----0-----0---0-|----------------|
A|3---3-----3-3-3-|3---3-----3-3-3-|2-----------x-x-|
F|4---4-----4-4-4-|4---4-----4-4-4-|2-----------x-x-|
C|5---5-----5-5-5-|5---5-----5-5-5-|3-----------x-x-|
G|5-----------5---|5-----------5---|3-----------x-x-|
D|----------------|----------------|----------------|


[Chorus]

D|--8---8---8---8-|--3---3---3---3-|--8---8---8---8-|--3---3---3---3-|
A|12--12--12--10--|6---6---6---5---|12--12--12--10--|6---6---6---5---|
F|----------------|----------------|----------------|----------------|
C|----------------|----------------|----------------|----------------|
G|----------------|----------------|----------------|----------------|
D|----------------|----------------|----------------|----------------|
 |                                                                    x2
D|0-0-0-0-0-0-0-0-|0-0-0-0-0-0-0-0-|0-0-0-0-0-0-0-0-|0-0-0-0-0-0-0-0-|
A|1-1-1-1-1-1-1-1-|1-1-1-1-1-1-1-1-|1-1-1-1-1-1-1-1-|1-1-1-1-1-1-1-1-|
F|2-2-2-2-2-2-2-2-|2-2-2-2-2-2-2-2-|2-2-2-2-2-2-2-2-|2-2-2-2-2-2-2-2-|
C|2-2-2-2-2-2-2-2-|3-3-3-3-3-3-3-3-|2-2-2-2-2-2-2-2-|3-3-3-3-3-3-3-3-|
G|0-0-0-0-0-0-0-0-|3-3-3-3-3-3-3-3-|0-0-0-0-0-0-0-0-|3-3-3-3-3-3-3-3-|
D|----------------|----------------|----------------|----------------|


D|--13--13--13--13|--8---8---8---8-|--13--13--13--13|--8---8---8---8-|
A|17--17--17--15--|12--12--12--10--|17--17--17--15--|12--12--12--10--|
F|----------------|----------------|----------------|----------------|
C|----------------|----------------|----------------|----------------|
G|----------------|----------------|----------------|----------------|
D|----------------|----------------|----------------|----------------|
 |
D|0-0-0-0-0-0-0-0-|0-0-0-0-0-0-0-0-|0-0-0-0-0-0-0-0-|0-0-0-0-0-0-0-0-|
A|1-1-1-1-1-1-1-1-|1-1-1-1-1-1-1-1-|1-1-1-1-1-1-1-1-|1-1-1-1-1-1-1-1-|
F|2-2-2-2-2-2-2-2-|2-2-2-2-2-2-2-2-|2-2-2-2-2-2-2-2-|2-2-2-2-2-2-2-2-|
C|2-2-2-2-2-2-2-2-|3-3-3-3-3-3-3-3-|2-2-2-2-2-2-2-2-|3-3-3-3-3-3-3-3-|
G|0-0-0-0-0-0-0-0-|3-3-3-3-3-3-3-3-|0-0-0-0-0-0-0-0-|3-3-3-3-3-3-3-3-|
D|----------------|----------------|----------------|----------------|


D|--8---8---8---8-|--8---8---8---8-|--8---8---8---8-|--1---1---1---1-|
A|12--12--12--10--|12--12--12--10--|12--12--12--10--|5---5---5---5---|
F|----------------|----------------|----------------|----------------|
C|----------------|----------------|----------------|----------------|
G|----------------|----------------|----------------|----------------|
D|----------------|----------------|----------------|----------------|
 |
D|0---0---0---0-0-|0---0---0---0-0-|0---0---0---0-0-|0-0-0-0-0-0-0-0-|
A|1---1---1---1-1-|1---1---1---1-1-|0---0---0---0-0-|0-0-0-0-0-0-0-0-|
F|2---2---2---2-2-|2---2---2---2-2-|0---0---0---0-0-|0-0-0-0-0-0-0-0-|
C|3---3---3---3-3-|3---3---3---3-3-|2---2---2---2-2-|0-0-0-0-0-0-0-0-|
G|3---3---3---3-3-|3---3---3---3-3-|2---2---2---2-2-|2-2-2-2-2-2-2-2-|
D|1---1---1---1-1-|1---1---1---1-1-|0---0---0---0-0-|0-0-0-0-0-0-0-0-|


[Break]

D|----------------|----------------|----------------|----------------|
A|----------------|----------------|----------------|----------------|
F|----2~----2~--2~|----2~----2~--2~|----2~----2~--2~|----2~------0-2-|
C|----------------|----------------|----------------|----------3-----|
G|0---------------|----------------|0---------------|----------------|
D|----------------|1---------------|----------------|3---------------|
 |                                                                    x2
D|----0-----0---0-|----0-----0---0-|----0-----0---0-|----0-----0---0-|
A|----1-----1-1-1-|----1-----1-1-1-|----1-----1-1-1-|----1-----1-1-1-|
F|2---2-----2-2-2-|2---2-----2-2-2-|2---2-----2-2-2-|2---2-----2-2-2-|
C|2---2-----2-2-2-|3---3-----3-3-3-|2---2-----2-2-2-|3---3-----3-3-3-|
G|0-----------0---|3-----------3---|0-----------0---|3-----------3---|
D|----------------|----------------|----------------|----------------|


[Verse]

D|----------------|----------------|----------------|----------------|
A|----------------|----------------|----------------|----------------|
F|----2-----2---2-|----2-----2---2-|----2-----2---2-|----2-------0-2-|
C|----------------|----------------|----------------|----------3-----|
G|0---------------|----------------|0---------------|----------------|
D|----------------|1---------------|----------------|1---------------|
 |                                                                    x4
D|----0-----0---0-|----0-----0---0-|----0-----0---0-|----0-----0---0-|
A|----1-----1-1-1-|----1-----1-1-1-|----1-----1-1-1-|----1-----1-1-1-|
F|2---2-----2-2-2-|2---2-----2-2-2-|2---2-----2-2-2-|2---2-----2-2-2-|
C|2---2-----2-2-2-|3---3-----3-3-3-|2---2-----2-2-2-|3---3-----3-3-3-|
G|0-----------0---|3-----------3---|0-----------0---|3-----------3---|
D|----------------|----------------|----------------|----------------|


[Pre-Chorus]

D|----------------|----------------|----------------|----------------|
A|----0-----0---0-|----0-----0---0-|----0-----0---0-|----0-----0---0-|
F|----4~----4~4~4~|----4~----4~4~4~|----2~----2~2~2~|----2~----2~2~2~|
C|----5~----5~5~5~|----5~----5~5~5~|----3~----3~3~3~|----3~----3~3~3~|
G|----------------|----------------|----------------|----------------|
D|3~--------------|3~--------------|1~--------------|1~--------------|
 |
D|----0-----0---0-|----0-----0---0-|----0-----0---0-|----0-----0---0-|
A|3---3-----3-3-3-|3---3-----3-3-3-|----1-----1-1-1-|----1-----1-1-1-|
F|4---4-----4-4-4-|4---4-----4-4-4-|2---2-----2-2-2-|2---2-----2-2-2-|
C|5---5-----5-5-5-|5---5-----5-5-5-|3---3-----3-3-3-|3---3-----3-3-3-|
G|5-----------5---|5-----------5---|3-----------3---|3-----------3---|
D|----------------|----------------|----------------|----------------|


D|----------------|----------------|----------------|
A|----0-----0---0-|----0-----0---0-|0~----------x-x-|
F|----4~----4~4~4~|----4~----4~4~4~|2~----------x-x-|
C|----5~----5~5~5~|----5~----5~5~5~|3~----------x-x-|
G|----------------|----------------|------------x-x-|
D|3---------------|1---------------|1~--------------|
 |
D|----0-----0---0-|----0-----0---0-|----------------|
A|3---3-----3-3-3-|3---3-----3-3-3-|2-----------x-x-|
F|4---4-----4-4-4-|4---4-----4-4-4-|2-----------x-x-|
C|5---5-----5-5-5-|5---5-----5-5-5-|3-----------x-x-|
G|5-----------5---|5-----------5---|3-----------x-x-|
D|----------------|----------------|----------------|


[Chorus]

D|--8---8---8---8-|--3---3---3---3-|--8---8---8---8-|--3---3---3---3-|
A|12--12--12--10--|6---6---6---5---|12--12--12--10--|6---6---6---5---|
F|----------------|----------------|----------------|----------------|
C|----------------|----------------|----------------|----------------|
G|----------------|----------------|----------------|----------------|
D|----------------|----------------|----------------|----------------|
 |                                                                    x2
D|0-0-0-0-0-0-0-0-|0-0-0-0-0-0-0-0-|0-0-0-0-0-0-0-0-|0-0-0-0-0-0-0-0-|
A|1-1-1-1-1-1-1-1-|1-1-1-1-1-1-1-1-|1-1-1-1-1-1-1-1-|1-1-1-1-1-1-1-1-|
F|2-2-2-2-2-2-2-2-|2-2-2-2-2-2-2-2-|2-2-2-2-2-2-2-2-|2-2-2-2-2-2-2-2-|
C|2-2-2-2-2-2-2-2-|3-3-3-3-3-3-3-3-|2-2-2-2-2-2-2-2-|3-3-3-3-3-3-3-3-|
G|0-0-0-0-0-0-0-0-|3-3-3-3-3-3-3-3-|0-0-0-0-0-0-0-0-|3-3-3-3-3-3-3-3-|
D|----------------|----------------|----------------|----------------|


D|--13--13--13--13|--8---8---8---8-|--13--13--13--13|--8---8---8---8-|
A|17--17--17--15--|12--12--12--10--|17--17--17--15--|12--12--12--10--|
F|----------------|----------------|----------------|----------------|
C|----------------|----------------|----------------|----------------|
G|----------------|----------------|----------------|----------------|
D|----------------|----------------|----------------|----------------|
 |
D|0-0-0-0-0-0-0-0-|0-0-0-0-0-0-0-0-|0-0-0-0-0-0-0-0-|0-0-0-0-0-0-0-0-|
A|1-1-1-1-1-1-1-1-|1-1-1-1-1-1-1-1-|1-1-1-1-1-1-1-1-|1-1-1-1-1-1-1-1-|
F|2-2-2-2-2-2-2-2-|2-2-2-2-2-2-2-2-|2-2-2-2-2-2-2-2-|2-2-2-2-2-2-2-2-|
C|2-2-2-2-2-2-2-2-|3-3-3-3-3-3-3-3-|2-2-2-2-2-2-2-2-|3-3-3-3-3-3-3-3-|
G|0-0-0-0-0-0-0-0-|3-3-3-3-3-3-3-3-|0-0-0-0-0-0-0-0-|3-3-3-3-3-3-3-3-|
D|----------------|----------------|----------------|----------------|


D|--8---8---8---8-|--8---8---8---8-|--8---8---8---8-|--1---1---1---1-|
A|12--12--12--10--|12--12--12--10--|12--12--12--10--|5---5---5---5---|
F|----------------|----------------|----------------|----------------|
C|----------------|----------------|----------------|----------------|
G|----------------|----------------|----------------|----------------|
D|----------------|----------------|----------------|----------------|
 |
D|0---0---0---0-0-|0---0---0---0-0-|0---0---0---0-0-|0-0-0-0-0-0-0-0-|
A|1---1---1---1-1-|1---1---1---1-1-|0---0---0---0-0-|0-0-0-0-0-0-0-0-|
F|2---2---2---2-2-|2---2---2---2-2-|0---0---0---0-0-|0-0-0-0-0-0-0-0-|
C|3---3---3---3-3-|3---3---3---3-3-|2---2---2---2-2-|0-0-0-0-0-0-0-0-|
G|3---3---3---3-3-|3---3---3---3-3-|2---2---2---2-2-|2-2-2-2-2-2-2-2-|
D|1---1---1---1-1-|1---1---1---1-1-|0---0---0---0-0-|0-0-0-0-0-0-0-0-|


[Bridge]

  G1,2
D|1---------------|0-----------0-0-|1---------------|0---------------|
A|3---------------|1-----------1-1-|3---------------|1---------------|
F|2---------------|0-----------0-0-|2---------------|0---------------|
C|0---------------|2-----------2-2-|0---------------|2---------------|
G|----------------|3-----------3-3-|----------------|3---------------|
D|----------------|----------------|----------------|----------------|

  PM               PM               PM               PM
D|----------------|----------------|----------------|----------------|
A|----------------|----------------|----------------|----------------|
F|0-0-0-0-0-0-0-0-|2-2-2-2-2-2-2-2-|0-0-0-0-0-0-0-0-|2-2-2-2-2-2-2-2-|
C|2-2-2-2-2-2-2-2-|3-3-3-3-3-3-3-3-|2-2-2-2-2-2-2-2-|3-3-3-3-3-3-3-3-|
G|3-3-3-3-3-3-3-3-|3-3-3-3-3-3-3-3-|3-3-3-3-3-3-3-3-|3-3-3-3-3-3-3-3-|
D|3-3-3-3-3-3-3-3-|1-1-1-1-1-1-1-1-|3-3-3-3-3-3-3-3-|1-1-1-1-1-1-1-1-|


[Chorus]
  G1
D|--8---8---8---8-|--8---8---8---8-|--8---8---8---8-|--8---8---8---8-|
A|12--12--12--10--|8---8-----------|12--12--12--10--|8---8-----------|
F|----------------|--------10--10--|----------------|--------10--10--|
C|----------------|----------------|----------------|----------------|
G|----------------|----------------|----------------|----------------|
D|----------------|----------------|----------------|----------------|
 |G2
D|1---1---1---1---|1---1---1---1-1-|0---0---0---0---|0---0---0---0-0-|
A|3---3---3---3---|3---3---3---3-3-|1---1---1---1---|1---1---1---1-1-|
F|2---2---2---2---|2---2---2---2-2-|0---0---0---0---|0---0---0---0-0-|
C|0---0---0---0---|0---0---0---0-0-|2---2---2---2---|2---2---2---2-2-|
G|----------------|----------------|3---3---3---3---|3---3---3---3-3-|
D|----------------|----------------|----------------|----------------|


D|--8---8---8---8-|--8---8---8---8-|--13--13--13--13|--13--13--13--13|
A|12--12--12--10--|8---8-----------|17--17--17--15--|13--13----------|
F|----------------|--------10--10--|----------------|--------15--15--|
C|----------------|----------------|----------------|----------------|
G|----------------|----------------|----------------|----------------|
D|----------------|----------------|----------------|----------------|
 |
D|0---0---0---0---|0---0---0---0-0-|0---0---0---0---|0---0---0---0-0-|
A|3---3---3---3---|3---3---3---3-3-|1---1---1---1---|1---1---1---1-1-|
F|4---4---4---4---|4---4---4---4-4-|2---2---2---2---|2---2---2---2-2-|
C|5---5---5---5---|5---5---5---5-5-|3---3---3---3---|3---3---3---3-3-|
G|5---5---5---5---|5---5---5---5-5-|3---3---3---3---|3---3---3---3-3-|
D|3---3---3---3---|3---3---3---3-3-|1---1---1---1---|1---1---1---1-1-|


D|--13--13--13--13|--13--13--13--13|--13--13--13--13|--13--13--13--13|
A|17--17--17--15--|13--13----------|17--17--17--15--|13--13----------|
F|----------------|--------15--15--|----------------|--------15--15--|
C|----------------|----------------|----------------|----------------|
G|----------------|----------------|----------------|----------------|
D|----------------|----------------|----------------|----------------|
 |
D|1---1---1---1---|1---1---1---1-1-|0---0---0---0---|0---0---0---0-0-|
A|3---3---3---3---|3---3---3---3-3-|1---1---1---1---|1---1---1---1-1-|
F|2---2---2---2---|2---2---2---2-2-|0---0---0---0---|0---0---0---0-0-|
C|0---0---0---0---|0---0---0---0-0-|2---2---2---2---|2---2---2---2-2-|
G|----------------|----------------|3---3---3---3---|3---3---3---3-3-|
D|----------------|----------------|----------------|----------------|


D|--13--13--13--13|--13--13--13--13|--8---8---8---8-|--8---8---8---8-|
A|17--17--17--15--|13--13----------|12--12--12--10--|8---8-----------|
F|----------------|--------15--15--|----------------|--------10--10--|
C|----------------|----------------|----------------|----------------|
G|----------------|----------------|----------------|----------------|
D|----------------|----------------|----------------|----------------|
 |
D|0---0---0---0---|0---0---0---0-0-|0---0---0---0---|0---0---0---0-0-|
A|3---3---3---3---|3---3---3---3-3-|1---1---1---1---|1---1---1---1-1-|
F|4---4---4---4---|4---4---4---4-4-|2---2---2---2---|2---2---2---2-2-|
C|5---5---5---5---|5---5---5---5-5-|3---3---3---3---|3---3---3---3-3-|
G|5---5---5---5---|5---5---5---5-5-|3---3---3---3---|3---3---3---3-3-|
D|3---3---3---3---|3---3---3---3-3-|1---1---1---1---|1---1---1---1-1-|


D|--13--13--13--13|--13--13--13--13|--13--13--13--13|--13--13--13--13|
A|17--17--17--15--|13--13----------|17--17--17--15--|13--13----------|
F|----------------|--------15--15--|----------------|--------15--15--|
C|----------------|----------------|----------------|----------------|
G|----------------|----------------|----------------|----------------|
D|----------------|----------------|----------------|----------------|
 |
D|0---0---0---0-0-|0---0---0---0-0-|0---0---0---0-0-|0-0-0-0-0-0-0-0-|
A|1---1---1---1-1-|1---1---1---1-1-|0---0---0---0-0-|0-0-0-0-0-0-0-0-|
F|2---2---2---2-2-|2---2---2---2-2-|0---0---0---0-0-|0-0-0-0-0-0-0-0-|
C|3---3---3---3-3-|3---3---3---3-3-|2---2---2---2-2-|0-0-0-0-0-0-0-0-|
G|3---3---3---3-3-|3---3---3---3-3-|2---2---2---2-2-|2-2-2-2-2-2-2-2-|
D|1---1---1---1-1-|1---1---1---1-1-|0---0---0---0-0-|0-0-0-0-0-0-0-0-|


[Outro]

D|----------------|----------------|----------------|----------------|
A|----------------|----------------|----------------|----------------|
F|----2~----2~--2~|----2~----2~--2~|----2~----2~--2~|----2~------0-2-|
C|----------------|----------------|----------------|----------3-----|
G|0---------------|----------------|0---------------|----------------|
D|----------------|1---------------|----------------|1---------------|
 |                                                                    x2
D|----0-----0---0-|----0-----0---0-|----0-----0---0-|----0-----0---0-|
A|----1-----1-1-1-|----1-----1-1-1-|----1-----1-1-1-|----1-----1-1-1-|
F|2---2-----2-2-2-|2---2-----2-2-2-|2---2-----2-2-2-|2---2-----2-2-2-|
C|2---2-----2-2-2-|3---3-----3-3-3-|2---2-----2-2-2-|3---3-----3-3-3-|
G|0-----------0---|3-----------3---|0-----------0---|3-----------3---|
D|----------------|----------------|----------------|----------------|


[End]

D|----------------|
A|----------------|
F|(2)~------------|
C|----------------|
G|----------------|
D|----------------|
 |
D|0---------------|
A|1---------------|
F|2---------------|
C|2---------------|
G|0---------------|
D|----------------|



************************************

| PM Palm mute
| X  dead note
| ~  Vibrato

************************************
Suggest correction
Give kudos to tab author, rate the tab!
1 2 3 4 5
comments
print report bad tab
guest
You may want to rate the tab now too:
select rating
Wanna post a correction for this tab? Suggest correction