Oops, an error
Loading. Please wait.
We have Chord Pro version of Black Honey.
It's the closest thing you can get to the original song and it has interactive parts. Check out the tab »
×

Black Honey tab

version 1
version 1

Whole song

  • This is a condensed copy of version 1 with the lea... Show more
  • This is a tab of how Dustin and Teppei perform the song acoustically.

Interactive

by Thrice
21,331 views 288 this week
1 commentread comment
1 2 3 4 5
x 13
add to favorites
×
Save as Personal and add changes to this tab that will be seen only by you. Learn more ›
×
You can save this tab as Personal to edit and correct it or add notes. All changes will be seen only by you. Learn more »
launch autoscroll
font size
0
reset
how to read this tab
guitar tuner
edit
Autoscroll
slow
fast
+/-
esc
set tempo
stop
Author
Difficulty
[Intro]

e|----------------|----------------|----------------|----------------|
B|----------------|----------------|----------------|----------------|
G|----2-----2---2-|----2-----2---2-|----2-----2---2-|----2-------0-2-|
D|----------------|----------------|----------------|----------3-----| X2
A|0---------------|----------------|0---------------|----------------|
E|----------------|1---------------|----------------|1---------------|


e|----------------|----------------|----------------|----------------|
B|---/10----8-----|----6-----5-----|---/10----8-----|----6---5b6r5-3-|
G|----------------|----------------|----------------|----------------|
D|----------------|----------------|----------------|----------------| X2
A|----------------|----------------|----------------|----------------|
E|----------------|----------------|----------------|----------------|
 |
e|----------------|----------------|----------------|----------------|
B|----------------|----------------|----------------|----------------|
G|----2-----2---2-|----2-----2---2-|----2-----2---2-|----2-------0-2-|
D|----------------|----------------|----------------|----------3-----| X2
A|0---------------|----------------|0---------------|----------------|
E|----------------|1---------------|----------------|1---------------|


e|----------------|----------------|----------------|----------------|
B|----------------|----------------|----------------|----------------|
G|----2-----2---2-|----2-----2---2-|----2-----2---2-|----2-------0-2-|
D|----------------|----------------|----------------|----------3-----| X2
A|0---------------|----------------|0---------------|----------------|
E|----------------|1---------------|----------------|1---------------|


[Verse]

e|----------------|----------------|----------------|----------------|
B|----------------|----------------|----------------|----------------|
G|----2-----2---2-|----2-----2---2-|----2-----2---2-|----2-------0-2-|
D|----------------|----------------|----------------|----------3-----| X2
A|0---------------|----------------|0---------------|----------------|
E|----------------|1---------------|----------------|1---------------|


e|----------------|----------------|----------------|----------------|
B|----------------|----------------|----------------|----------------|
G|----2-----2---2-|----2-----2---2-|----2-----2---2-|----2-------0-2-|
D|----------------|----------------|----------------|----------3-----|
A|0---------------|----------------|0---------------|----------------|
E|----------------|1---------------|----------------|1---------------|
 |
e|----------------|----------------|----------------|----------------|
B|10\-------------|----------------|----------------|----------------|
G|----------2---2-|----2-----2---2-|----2-----2---2-|----2-------0-2-|
D|----------------|----------------|----------------|----------3-----|
A|----------------|----------------|----------------|----------------|
E|----------------|----------------|----------------|----------------|


e|----------------|----------------|----------------|----------------|
B|----------------|----------------|----------------|----------------|
G|----2-----2---2-|----2-----2---2-|----2-----2---2-|----2-------0-2-|
D|----------------|----------------|----------------|----------3-----|
A|0---------------|----------------|0---------------|----------------|
E|----------------|1---------------|----------------|1---------------|
 |
e|----------------|----------------|----------------|----------------|
B|----------------|----------------|----------------|----------------|
G|----2-----2---2-|----2-----2---2-|----2-----2---2-|----2-------0-2-|
D|----------------|----------------|----------------|----------3-----|
A|----------------|----------------|----------------|----------------|
E|----------------|----------------|----------------|----------------|


[Pre-Chorus]

e|----------------|----------------|----------------|----------------|
B|----------------|----------------|----------------|----------------|
G|----4-----4---4-|----4-----4---4-|----2-----2---2-|----2-----2---2-|
D|----------------|----------------|----------------|----------------|
A|----------------|----------------|----------------|----------------|
E|----------------|----------------|----------------|----------------|
 |
e|----------------|----------------|----------------|----------------|
B|----------------|----------------|----------------|----------------|
G|----------------|----------------|----------------|----------------|
D|5-5-5-5-5-5-5-5-|5-5-5-5-5-5-5-5-|3-3-3-3-3-3-3-3-|3-3-3-3-3-3-3-3-|
A|5-5-5-5-5-5-5-5-|5-5-5-5-5-5-5-5-|3-3-3-3-3-3-3-3-|3-3-3-3-3-3-3-3-|
E|3-3-3-3-3-3-3-3-|3-3-3-3-3-3-3-3-|1-1-1-1-1-1-1-1-|1-1-1-1-1-1-1-1-|

                                         feedback 
e|----------------|----------------|----------------|
B|----------------|----------------|----------------|
G|----4-----4---4-|----4-----4---4-|2~--------------|
D|----------------|----------------|----------------|
A|----------------|----------------|----------------|
E|----------------|----------------|----------------|
 |
e|----------------|----------------|----------------|
B|----------------|----------------|----------------|
G|----------------|----------------|----------------|
D|5-5-5-5-5-5-5-5-|5-5-5-5-5-5-5-5-|3---------------|
A|5-5-5-5-5-5-5-5-|5-5-5-5-5-5-5-5-|3---------------|
E|3-3-3-3-3-3-3-3-|3-3-3-3-3-3-3-3-|1---------------|


[Chorus]

Lead is occasionally very low in the mix

e|7h8p7h8p7h8p5---|----------------|
B|----------------|----------------|
G|----------------|----------------|
D|----------------|----------------| X4
A|----------------|----------------|
E|----------------|----------------|
 |
e|----------------|----------------|
B|----------------|----------------|
G|----------------|----------------|
D|7---7-7-7---7-7-|3---3-3-3---3-3-| X4
A|7---7-7-7---7-7-|3---3-3-3---3-3-|
E|5---5-5-5---5-5-|1---1-1-1---1-1-|


e|12p13h12p13h12p13h10----|7h8p7h8p7h8p5---|
B|------------------------|----------------|
G|------------------------|----------------|
D|------------------------|----------------| X2
A|------------------------|----------------|
E|------------------------|----------------|
 |
e|------------------------|----------------|
B|------------------------|----------------|
G|------------------------|----------------|
D|7-----7--7--7-----7--7--|3---3-3-3---3-3-| X2
A|7-----7--7--7-----7--7--|3---3-3-3---3-3-|
E|5-----5--5--5-----5--5--|1---1-1-1---1-1-|


e|12p13h12p13h12p13h10----|12p13h12p13h12p13h10----|
B|------------------------|------------------------|
G|------------------------|------------------------|
D|------------------------|------------------------|
A|------------------------|------------------------|
E|------------------------|------------------------|
 |
e|------------------------|------------------------|
B|------------------------|------------------------|
G|------------------------|------------------------|
D|3-----3--3--3-----3--3--|3-----3--3--3-----3--3--|
A|3-----3--3--3-----3--3--|3-----3--3--3-----3--3--|
E|1-----1--1--1-----1--1--|1-----1--1--1-----1--1--|


e|7h8p7h8p7h8p5---|----------------|
B|----------------|----------------|
G|----------------|----------------|
D|----------------|----------------|
A|----------------|----------------|
E|----------------|----------------|
 |
e|----------------|----------------|
B|----------------|----------------|
G|----------------|----------------|
D|2---2-2-2---2-2-|2---2-2-2---2-2-|
A|2---2-2-2---2-2-|2---2-2-2---2-2-|
E|0---0-0-0---0-0-|0---0-0-0---0-0-|


[Pre-Verse]

e|5~--------------|----------------|----------------|--------7b8r7-5~|
B|----------------|----------------|----------------|----------------|
G|----------------|----------------|----------------|----------------|
D|----------------|----------------|----------------|----------------|
A|----------------|----------------|----------------|----------------|
E|----------------|----------------|----------------|----------------|
 |
e|----------------|----------------|----------------|----------------|
B|----------------|----------------|----------------|----------------|
G|----2-----2---2-|----2-----2---2-|----2-----2---2-|----2-------0-2-|
D|----------------|----------------|----------------|----------3-----|
A|0---------------|----------------|0---------------|----------------|
E|----------------|1---------------|----------------|1---------------|

                                               PH Hit Pinch harmonics and dip
                                                  whammy bar to simulate feedback
e|(5)~------------|----------------|------------15+-|----------------|
B|----------------|----------------|----------------|----------------|
G|----------------|----------------|------------14+-|----------------|
D|----------------|----------------|----------------|----------------|
A|----------------|----------------|----------------|----------------|
E|----------------|----------------|----------------|----------------|
 |
e|----------------|----------------|----------------|----------------|
B|----------------|----------------|----------------|----------------|
G|----2-----2---2-|----2-----2---2-|----2-----2---2-|----2-------0-2-|
D|----------------|----------------|----------------|----------3-----|
A|0---------------|----------------|0---------------|----------------|
E|----------------|1---------------|----------------|1---------------|


e|----------------|----------------|----------------|----------------|
B|----------------|----------------|----------------|----------------|
G|----2-----2---2-|----2-----2---2-|----2-----2---2-|----2-------0-2-|
D|----------------|----------------|----------------|----------3-----|
A|0---------------|----------------|0---------------|----------------|
E|----------------|1---------------|----------------|1---------------|
 |
e|5~--------------|----------------|----------------|----------------|
B|----------------|----------------|----------------|----------------|
G|----------------|----------------|----------------|----------------|
D|----------------|----------------|----------------|----------------|
A|----------------|----------------|----------------|----------------|
E|----------------|----------------|----------------|----------------|


e|----------------|----------------|----------------|----------------|
B|----------------|----------------|----------------|----------------|
G|----2-----2---2-|----2-----2---2-|----2-----2---2-|----2-------0-2-|
D|----------------|----------------|----------------|----------3-----| X3
A|0---------------|----------------|0---------------|----------------|
E|----------------|1---------------|----------------|1---------------|
 |
e|----------------|----------------|----------------|----------------|
B|----------------|----------------|----------------|----------------|
G|----2-----2---2-|----2-----2---2-|----2-----2---2-|----2-------0-2-|
D|----------------|----------------|----------------|----------3-----| X3
A|----------------|----------------|----------------|----------------|
E|----------------|----------------|----------------|----------------|


[Pre-Chorus]

e|----------------|----------------|----------------|----------------|
B|----------------|----------------|----------------|----------------|
G|----4-----4---4-|----4-----4---4-|----2-----2---2-|----2-----2---2-|
D|----------------|----------------|----------------|----------------|
A|----------------|----------------|----------------|----------------|
E|----------------|----------------|----------------|----------------|
 |
e|----------------|----------------|----------------|----------------|
B|----------------|----------------|----------------|----------------|
G|----------------|----------------|----------------|----------------|
D|5-5-5-5-5-5-5-5-|5-5-5-5-5-5-5-5-|3-3-3-3-3-3-3-3-|3-3-3-3-3-3-3-3-|
A|5-5-5-5-5-5-5-5-|5-5-5-5-5-5-5-5-|3-3-3-3-3-3-3-3-|3-3-3-3-3-3-3-3-|
E|3-3-3-3-3-3-3-3-|3-3-3-3-3-3-3-3-|1-1-1-1-1-1-1-1-|1-1-1-1-1-1-1-1-|

                                         feedback 
e|----------------|----------------|----------------|
B|----------------|----------------|----------------|
G|----4-----4---4-|----4-----4---4-|2~--------------|
D|----------------|----------------|----------------|
A|----------------|----------------|----------------|
E|----------------|----------------|----------------|
 |
e|----------------|----------------|----------------|
B|----------------|----------------|----------------|
G|----------------|----------------|----------------|
D|5-5-5-5-5-5-5-5-|5-5-5-5-5-5-5-5-|3---------------|
A|5-5-5-5-5-5-5-5-|5-5-5-5-5-5-5-5-|3---------------|
E|3-3-3-3-3-3-3-3-|3-3-3-3-3-3-3-3-|1---------------|


[Chorus]

Lead is occasionally very low in the mix
e|7h8p7h8p7h8p5---|----------------|
B|----------------|----------------|
G|----------------|----------------|
D|----------------|----------------| X4
A|----------------|----------------|
E|----------------|----------------|
 |
e|----------------|----------------|
B|----------------|----------------|
G|----------------|----------------|
D|7---7-7-7---7-7-|3---3-3-3---3-3-| X4
A|7---7-7-7---7-7-|3---3-3-3---3-3-|
E|5---5-5-5---5-5-|1---1-1-1---1-1-|


e|12p13h12p13h12p13h10----|7h8p7h8p7h8p5---|
B|------------------------|----------------|
G|------------------------|----------------|
D|------------------------|----------------| X2
A|------------------------|----------------|
E|------------------------|----------------|
 |
e|------------------------|----------------|
B|------------------------|----------------|
G|------------------------|----------------|
D|7-----7--7--7-----7--7--|3---3-3-3---3-3-| X2
A|7-----7--7--7-----7--7--|3---3-3-3---3-3-|
E|5-----5--5--5-----5--5--|1---1-1-1---1-1-|


e|12p13h12p13h12p13h10----|12p13h12p13h12p13h10----|
B|------------------------|------------------------|
G|------------------------|------------------------|
D|------------------------|------------------------|
A|------------------------|------------------------|
E|------------------------|------------------------|
 |
e|------------------------|------------------------|
B|------------------------|------------------------|
G|------------------------|------------------------|
D|3-----3--3--3-----3--3--|3-----3--3--3-----3--3--|
A|3-----3--3--3-----3--3--|3-----3--3--3-----3--3--|
E|1-----1--1--1-----1--1--|1-----1--1--1-----1--1--|


e|7h8p7h8p7h8p5---|----------------|
B|----------------|----------------|
G|----------------|----------------|
D|----------------|----------------|
A|----------------|----------------|
E|----------------|----------------|
 |
e|----------------|----------------|
B|----------------|----------------|
G|----------------|----------------|
D|2---2-2-2---2-2-|2---2-2-2---2-2-|
A|2---2-2-2---2-2-|2---2-2-2---2-2-|
E|0---0-0-0---0-0-|0---0-0-0---0-0-|


[Bridge]

e|----------------|----------------|----------------|----------------|
B|----------------|----------------|----------------|----------------|
G|----------------|----------------|----------------|----------------|
D|----------------|----------------|----------------|----------------|
A|----------------|----------------|----------------|----------------|
E|----------------|----------------|----------------|----------------|
 |
e|----------------|----------------|----------------|----------------|
B|5~--------------|(5)~------------|(5)~------------|(5)~------------|
G|----------------|----------------|----------------|----------------|
D|----------------|----------------|----------------|----------------|
A|----------------|----------------|----------------|----------------|
E|----------------|----------------|----------------|----------------|

         
e|----------------|----------------|----------------|----------------|
B|----------------|----------------|----------------|----------------|
G|----------------|----------------|----------------|----------------|
D|----------------|----------------|----------------|----------------|
A|----------------|----------------|----------------|----------------|
E|----------------|----------------|----------------|----------------|
 |
e|----------------|----------------|----------------|----------------|
B|----------------|----------------|----------------|----------------|
G|----------------|----------------|----------------|----------------|
D|----------------|----------------|----------------|----------------|
A|----------------|----------------|----------------|----------------|
E|----------------|----------------|----------------|----------------|


e|----------------|----------------|----------------|----------------|
B|----------------|----------------|----------------|----------------|
G|----------------|----------------|----------------|----------------|
D|----------------|----------------|----------------|----------------|
A|----------------|----------------|----------------|----------------|
E|----------------|----------------|----------------|----------------|
 |PM               PM               PM               PM
e|----------------|----------------|----------------|----------------|
B|----------------|----------------|----------------|----------------|
G|----------------|----------------|----------------|----------------|
D|5-5-5-5-5-5-5-5-|3-3-3-3-3-3-3-3-|5-5-5-5-5-5-5-5-|3-3-3-3-3-3-3-3-|
A|5-5-5-5-5-5-5-5-|3-3-3-3-3-3-3-3-|5-5-5-5-5-5-5-5-|3-3-3-3-3-3-3-3-|
E|3-3-3-3-3-3-3-3-|1-1-1-1-1-1-1-1-|3-3-3-3-3-3-3-3-|1-1-1-1-1-1-1-1-|


[Chorus]

e|7h8p7h8p7h8p5---|5---------------|7h8p7h8p7h8p5---|5---------------|
B|----------------|--7-------------|----------------|--7-------------|
G|----------------|----------------|----------------|----------------|
D|----------------|----------------|----------------|----------------|
A|----------------|----------------|----------------|----------------|
E|----------------|----------------|----------------|----------------|
 |
e|----------------|----------------|----------------|----------------|
B|----------------|----------------|----------------|----------------|
G|----------------|----------------|----------------|----------------|
D|7---7-7-7---7-7-|7---7-7-7---7-7-|3---3-3-3---3-3-|3---3-3-3---3-3-|
A|7---7-7-7---7-7-|7---7-7-7---7-7-|3---3-3-3---3-3-|3---3-3-3---3-3-|
E|5---5-5-5---5-5-|5---5-5-5---5-5-|1---1-1-1---1-1-|1---1-1-1---1-1-|


e|7h8---7h8---7h8-|--7h8---7h8-----|12h13----12h13----12h13-|---12h13----12h13-------|
B|----------------|----------------|------------------------|------------------------|
G|----------------|----------------|------------------------|------------------------|
D|----------------|----------------|------------------------|------------------------|
A|----------------|----------------|------------------------|------------------------|
E|----------------|----------------|------------------------|------------------------|
 |
e|----------------|----------------|------------------------|------------------------|
B|----------------|----------------|------------------------|------------------------|
G|----------------|----------------|------------------------|------------------------|
D|7---7-7-7---7-7-|7---7-7-7---7-7-|5-----5--5--5-----5--5--|5-----5--5--5-----5--5--|
A|7---7-7-7---7-7-|7---7-7-7---7-7-|5-----5--5--5-----5--5--|5-----5--5--5-----5--5--|
E|5---5-5-5---5-5-|5---5-5-5---5-5-|3-----3--3--3-----3--3--|3-----3--3--3-----3--3--|


e|12p13h12p13h12p13h10----|7h8p7h8p7h8p5---|12p13h12p13h12p13h10----|7h8p7h8p7h8p5---|
B|------------------------|----------------|------------------------|----------------|
G|------------------------|----------------|------------------------|----------------|
D|------------------------|----------------|------------------------|----------------|
A|------------------------|----------------|------------------------|----------------|
E|------------------------|----------------|------------------------|----------------|
 |
e|------------------------|----------------|------------------------|----------------|
B|------------------------|----------------|------------------------|----------------|
G|------------------------|----------------|------------------------|----------------|
D|7-----7--7--7-----7--7--|7---7-7-7---7-7-|3-----3--3--3-----3--3--|3---3-3-3---3-3-|
A|7-----7--7--7-----7--7--|7---7-7-7---7-7-|3-----3--3--3-----3--3--|3---3-3-3---3-3-|
E|5-----5--5--5-----5--5--|5---5-5-5---5-5-|1-----1--1--1-----1--1--|1---1-1-1---1-1-|


e|7h8---7h8---7h8-|--7h8---7h8-----|12h13----12h13----12h13-|---12h13----12h13-------|
B|----------------|----------------|------------------------|------------------------|
G|----------------|----------------|------------------------|------------------------|
D|----------------|----------------|------------------------|------------------------|
A|----------------|----------------|------------------------|------------------------|
E|----------------|----------------|------------------------|------------------------|
 |
e|----------------|----------------|------------------------|------------------------|
B|----------------|----------------|------------------------|------------------------|
G|----------------|----------------|------------------------|------------------------|
D|7---7-7-7---7-7-|7---7-7-7---7-7-|5-----5--5--5-----5--5--|5-----5--5--5-----5--5--|
A|7---7-7-7---7-7-|7---7-7-7---7-7-|5-----5--5--5-----5--5--|5-----5--5--5-----5--5--|
E|5---5-5-5---5-5-|5---5-5-5---5-5-|3-----3--3--3-----3--3--|3-----3--3--3-----3--3--|


e|12h13----12h13----12h13-|---12h13----12h13-------|12h13----12h13----12h13-|---12h13----12h13-------|
B|------------------------|------------------------|------------------------|------------------------|
G|------------------------|------------------------|------------------------|------------------------|
D|------------------------|------------------------|------------------------|------------------------|
A|------------------------|------------------------|------------------------|------------------------|
E|------------------------|------------------------|------------------------|------------------------|
 |
e|------------------------|------------------------|------------------------|------------------------|
B|------------------------|------------------------|------------------------|------------------------|
G|------------------------|------------------------|------------------------|------------------------|
D|3-----3--3--3-----3--3--|3-----3--3--3-----3--3--|2-----2--2--2-----2--2--|2-----2--2--2-----2--2--|
A|3-----3--3--3-----3--3--|3-----3--3--3-----3--3--|2-----2--2--2-----2--2--|2-----2--2--2-----2--2--|
E|1-----1--1--1-----1--1--|1-----1--1--1-----1--1--|0-----0--0--0-----0--0--|0-----0--0--0-----0--0--|


[Outro]

e|----------------|----------------|----------------|----------------|
B|----------------|----------------|----------------|----------------|
G|----2-----2---2-|----2-----2---2-|----2-----2---2-|----2-------0-2-|
D|----------------|----------------|----------------|----------3-----| X2
A|0---------------|----------------|0---------------|----------------|
E|----------------|1---------------|----------------|1---------------|



************************************

| r  Release
| b  Bend
| h  Hammer-on
| p  Pull-off
| PH Pinch harmonic
| PM Palm mute
| X  dead note
| /  Slide up
| \  Slide down
| ~  Vibrato

************************************

            
            
Suggest correction
Creating personal tab
Creating personal tab
You can edit any tab online and save it as your Personal.

You can edit, replace or remove any tab part or add personal notes – all changes will be seen only by you.

Personal tabs can be accessed anytime from any device, even offline.
Learn more »
comments
print report bad tab
1 comment total.
0 reply
Snake™ 270 Mar 21, 2017 04:46 AM

Spot on tab!

guest
You may want to rate the tab now too:
select rating
Wanna post a correction for this tab? Suggest correction