Oops, an error
Loading. Please wait.
We have Chord Pro version of Black Honey.
It's the closest thing you can get to the original song and it has interactive parts. Check out the tab »
×

Black Honey Tab

version 2
version 2

Whole song

  • This is a condensed copy of version 1 with the lea... Show more

Interactive

by Thrice
1,732 views 54 this week
1 commentread comment
1 2 3 4 5
x 4
add to favorites
launch autoscroll
font size
0
reset
how to read this tab
guitar tuner
Autoscroll
slow
fast
+/-
esc
set tempo
stop
Author
Difficulty
Tuning
novice
E A D G B E
About this tab version
This is a condensed copy of version 1 with the lead removed. It has several corrections as well. Was this info helpful? Yes No
Thrice - Black Honey

The amount of times you strum isn't perfect here.
It just shows you the layout of the song, the rhythm is simple.

[Intro]

e|--------------|--------------|--------------|----------------|
B|--------------|--------------|--------------|----------------|
G|----2-----2-2-|----2-----2-2-|----2-----2-2-|----2-------0-2-|
D|--------------|--------------|--------------|----------3-----| 
A|-0------------|--------------|-0------------|----------------|
E|--------------|-1------------|--------------|-1--------------|

[Pre-Chorus]
e|----------|----------|----------|-----|
B|----------|----------|----------|-----|
G|----------|----------|----------|-----|
D|5-5-5-5-5-|3-3-3-3-3-|5-5-5-5-5-|3----|
A|5-5-5-5-5-|3-3-3-3-3-|5-5-5-5-5-|3----|
E|3-3-3-3-3-|1-1-1-1-1-|3-3-3-3-3-|1----|

[Chorus]
e|----------------|----------------|        e|--------------------------|
B|----------------|----------------|        B|--------------------------|
G|2---2-2-2---2-2-|----------------|        G|-x-x--------------------2-|
D|2---2-2-2---2-2-|3---3-3-3---3-3-| X6     D|-x-x--3-3---2-2---5-5---2-|
A|0---0-0-0---0-0-|3---3-3-3---3-3-|        A|-x-x--3-3---2-2---5-5---0-|
E|----------------|1---1-1-1---1-1-|        E|-x-x--1-1---0-0---3-3-----|

[Bridge]
e|----------------|----------------|
B|----------------|----------------|
G|----------------|----------------|
D|5-5-5-5-5-5-5-5-|3-3-3-3-3-3-3-3-|
A|3-3-3-3-3-3-3-3-|3-3-3-3-3-3-3-3-| X2
E|3-3-3-3-3-3-3-3-|1-1-1-1-1-1-1-1-|

[End]
e|----------|----------|-----------|
B|----------|----------|-----------|
G|-----2----|-----2----|--------2--|
D|-7-3-2-5--|-7-3-2-5--|-3-2--5-2--|
A|-5-3-0-5--|-5-3-0-5--|-3-2--5-0--|
E|-5-1---3--|-5-1---3--|-1-0--3----|
Suggest correction
comments
print report bad tab
1 comment total.
0 reply
chyeaaproduct 10 Nov 17, 2016 01:31 AM

It's an absolute masterpiece, thank you! But I have one flaw. The intro, if you listen, is 0, 2, 2, 2-2. The close twos meaning alternate pick! But thank you again!! 5 stars!

guest
You may want to rate the tab now too:
select rating
Wanna post a correction for this tab? Suggest correction