Oops, an error
Loading. Please wait.

Blinded Tab

5,085 views 12 this week
no commentswrite comment
1 2 3 4 5
excellent!
x 7
add to favorites
launch autoscroll
font size
0
reset
how to read this tab
guitar tuner
Tab Pro tools
  • play this tab
  • loop segment
  • change instrument
  • show fretboard
  • metronome
×
Best way to learn
"Blinded"
Autoscroll
slow
fast
+/-
esc
set tempo
stop
Contributor
Difficulty
Tuning
intermediate
C G C F A D
Thrice - Blinded from the album Major/Minor

This is my second tab from this album, check out 'Promises' too!

Drop C tuning (Standard drop D tuning down a whole step)


Intro: (listen to the timings) (0.00-0.30)

last chords gets slightly bent some of the time, and there are dead strums in there too

D||--------------------|
A||--------------------|
F||-4--4----6-44-6-4-6-|
C||-5--5-44-7-77-7-7-7-|
G||------55-0-00-0-0-0-|
C||-5--5-00------------|x8

Verse: (0.30-0.58) play through twice

D||-----------------|-----------------|
A||-----3-----3---3-|-----3-----/-7-7-|
F||-----------------|-----------------|
C||-4-4-4-4-4-4-4-4-|-4-4-4-4-4-/-7-5-|
G||-2-2-2-2-2-2-2-2-|-2-2-2-2-2-/-5-5-|
C||-----------------|-----------------|

D||-----------------|-----------------|
A||-----2-----2---2-|-----2-----------|
F||-----------------|-----------------|
C||-2-2-2-2-2-2-2-2-|-2-2-2-2-2-------|
G||-0-0-0-0-0-0-0-0-|-0-0-0-0-0-------|
C||-----------------|------------4-4-4|

D||-----------------|-----------------|
A||-----------------|-------------7-7-|
F||-----4-----4---4-|-----4-----/-5-5-|
C||-5-5-5-5-5-5-5-5-|-5-5-5-5-5-/-----|
G||-----------------|-------------5-5-|
C||-5-5-5-5-5-5-5-5-|-5-5-5-5-5-/-----|

D||-----------------|-----------------|
A||-----8-----8---8-|-----8-----------|
F||-----------------|-----------------|
C||-9-9-9-9-9-9-9-9-|-9-9-9-9-9-2-2-2-|
G||-7-7-7-7-7-7-7-7-|-7-7-7-7-7-0-0-0-|
C||-----------------|-----------------| 

Bridge 1: (0.58-1.14) (massive amounts of reverb and delay) play through twice

D||-----------------|-----------------|
A||-----------------|-----------------|
F||-4444444444444444|/7777777777777777|
C||-----------------|-----------------|
G||-----------------|-----------------|
C||-----------------|-----------------| 

(11th fret not 1st!)

D||-----------------|-----------------|
A||-----------------|-----------------|
F||/1111111111111111|\9999999999999999|
C||-----------------|-----------------|
G||-----------------|-----------------|
C||-----------------|-----------------| 


Repeat Verse (1.14-1.43)

Pre-Chorus: (1.43-1.57)

D||-----------------|-----------------|
A||-----------------|-----------------|
F||-4-4--4444-6-6-7-|-6-6--6666-77-7-6|
C||-5-5--5555-5-5-5-|-7-7--7777-77-7-7|
G||-5-5--5555-5-5-5-|-7-7--7777-77-7-7|
C||-----------------|-----------------|x2

Chorus: (1.57-2.12)

Guitar 1 plays the intro

Guitar 2's riff: (listen to the timings especially at the end)

D||-----------------|-----------------|
A||-----------------|-----------------|
F||--9h11-11-9-7-6--|-4--6--4-6-------|
C||-----------------|-----------------|
G||-----------------|-----------------|
C||-----------------|-----------------| 

D||-----------------|-----------------|
A||-----------------|-----------------|
F||--9h11-11-9-7-6--|-4--6--4-2-------|
C||-----------------|-----------------|
G||-----------------|-----------------|
C||-----------------|-----------------| 

D||-----------------|-----------------|
A||-----------------|-----------------|
F||--9h11-11-9-7-6--|-4--6--4-6-------|
C||-----------------|-----------------|
G||-----------------|-----------------|
C||-----------------|-----------------| 

D||-----------------|-----------------|
A||-----------------|-----------------|
F||--9h11-11-9-7-6--|-4--6--4-2-2-2-4-|
C||-----------------|-----------------|
G||-----------------|-----------------|
C||-----------------|-----------------| 


Bridge 2: (2.12-2.27) (some reverb and slight delay)

D||-----------------|-----------------|
A||--7-7-7-7-7-7\5--|-3-2--2h3--------|
F||-----------------|-----------4-----|
C||-----------------|-----------------|
G||-----------------|-----------------|
C||-----------------|-----------------| 

D||-----------------|-----------------|
A||--7-7-7-7-7-7\5--|-10p7------------|
F||-----------------|-----------------|
C||-----------------|-----------------|
G||-----------------|-----------------|
C||-----------------|-----------------| 

Verse 2: (2.27-2.56)

only bass, drums and vocals for first half, then:

D||-----------------|-----------------|
A||------3----------|--------2--------|
F||-----------------|-----------------|
C||-----------------|-----------------|
G||--2--------------|-0---------------|
C||-----------------|-----------------| 

D||-----------------|-----------------|
A||------3----------|-8---8-8-8-8-8-8-|
F||-----------------|-----------------|
C||-----------------|-----------------|
G||-----------------|-----------------|
C||-----------------|-----------------| 

Repeat Pre Chorus (2.56-3.11)

Repeat Chorus x2 (3.11-3.41)

Repeat Bridge x2 (3.41-end)

Thanks for reading and enjoy!

If you like it please read 'Promises' and 'Talking Through Glass' from the Beggars album

Currently working on the rest of Major/Minor so keep checking for more!

Please rate and comment :)
comments
print report bad tab
I want to post or [tab]
guest
You may want to rate the tab now too:
select rating
Please do not post tabs as comments. Select "correction" instead!